ISO-10303-21;
HEADER;
/* Generated by software containing ST-Developer
 * from STEP Tools, Inc. (www.steptools.com) 
 */
/* OPTION: using custom renumber hook */

FILE_DESCRIPTION(
/* description */ ('STEP AP242',
'CAx-IF Rec.Pracs.---Representation and Presentation of Product Manufa
cturing Information (PMI)---4.0---2014-10-13',
'CAx-IF Rec.Pracs.---3D Tessellated Geometry---0.4---2014-09-14','2;1'),

/* implementation_level */ '2;1');

FILE_NAME(
/* name */ '67545428e48caf26df1c99a7',
/* time_stamp */ '2024-12-07T13:56:57Z',
/* author */ (''),
/* organization */ (''),
/* preprocessor_version */ 'ST-DEVELOPER v20',
/* originating_system */ 'ONSHAPE BY PTC INC, 1.190',
/* authorisation */ '  ');

FILE_SCHEMA (('AP242_MANAGED_MODEL_BASED_3D_ENGINEERING_MIM_LF { 1 0 10303 442 1 1 4 }'));
ENDSEC;

DATA;
#10=SHAPE_REPRESENTATION_RELATIONSHIP('','',#371,#11);
#11=ADVANCED_BREP_SHAPE_REPRESENTATION('',(#369),#577);
#12=ORIENTED_EDGE('',*,*,#108,.T.);
#13=ORIENTED_EDGE('',*,*,#109,.F.);
#14=ORIENTED_EDGE('',*,*,#110,.F.);
#15=ORIENTED_EDGE('',*,*,#111,.T.);
#16=ORIENTED_EDGE('',*,*,#112,.T.);
#17=ORIENTED_EDGE('',*,*,#113,.F.);
#18=ORIENTED_EDGE('',*,*,#114,.F.);
#19=ORIENTED_EDGE('',*,*,#109,.T.);
#20=ORIENTED_EDGE('',*,*,#115,.T.);
#21=ORIENTED_EDGE('',*,*,#116,.F.);
#22=ORIENTED_EDGE('',*,*,#117,.F.);
#23=ORIENTED_EDGE('',*,*,#113,.T.);
#24=ORIENTED_EDGE('',*,*,#118,.T.);
#25=ORIENTED_EDGE('',*,*,#119,.F.);
#26=ORIENTED_EDGE('',*,*,#120,.F.);
#27=ORIENTED_EDGE('',*,*,#116,.T.);
#28=ORIENTED_EDGE('',*,*,#121,.T.);
#29=ORIENTED_EDGE('',*,*,#122,.F.);
#30=ORIENTED_EDGE('',*,*,#123,.F.);
#31=ORIENTED_EDGE('',*,*,#119,.T.);
#32=ORIENTED_EDGE('',*,*,#124,.T.);
#33=ORIENTED_EDGE('',*,*,#125,.F.);
#34=ORIENTED_EDGE('',*,*,#126,.F.);
#35=ORIENTED_EDGE('',*,*,#122,.T.);
#36=ORIENTED_EDGE('',*,*,#127,.T.);
#37=ORIENTED_EDGE('',*,*,#128,.F.);
#38=ORIENTED_EDGE('',*,*,#129,.F.);
#39=ORIENTED_EDGE('',*,*,#125,.T.);
#40=ORIENTED_EDGE('',*,*,#130,.T.);
#41=ORIENTED_EDGE('',*,*,#131,.F.);
#42=ORIENTED_EDGE('',*,*,#132,.F.);
#43=ORIENTED_EDGE('',*,*,#128,.T.);
#44=ORIENTED_EDGE('',*,*,#133,.T.);
#45=ORIENTED_EDGE('',*,*,#134,.F.);
#46=ORIENTED_EDGE('',*,*,#135,.F.);
#47=ORIENTED_EDGE('',*,*,#131,.T.);
#48=ORIENTED_EDGE('',*,*,#136,.T.);
#49=ORIENTED_EDGE('',*,*,#137,.F.);
#50=ORIENTED_EDGE('',*,*,#138,.F.);
#51=ORIENTED_EDGE('',*,*,#134,.T.);
#52=ORIENTED_EDGE('',*,*,#139,.T.);
#53=ORIENTED_EDGE('',*,*,#140,.F.);
#54=ORIENTED_EDGE('',*,*,#141,.F.);
#55=ORIENTED_EDGE('',*,*,#137,.T.);
#56=ORIENTED_EDGE('',*,*,#142,.F.);
#57=ORIENTED_EDGE('',*,*,#143,.F.);
#58=ORIENTED_EDGE('',*,*,#144,.T.);
#59=ORIENTED_EDGE('',*,*,#145,.T.);
#60=ORIENTED_EDGE('',*,*,#146,.T.);
#61=ORIENTED_EDGE('',*,*,#147,.F.);
#62=ORIENTED_EDGE('',*,*,#148,.F.);
#63=ORIENTED_EDGE('',*,*,#143,.T.);
#64=ORIENTED_EDGE('',*,*,#149,.T.);
#65=ORIENTED_EDGE('',*,*,#150,.F.);
#66=ORIENTED_EDGE('',*,*,#151,.F.);
#67=ORIENTED_EDGE('',*,*,#147,.T.);
#68=ORIENTED_EDGE('',*,*,#152,.F.);
#69=ORIENTED_EDGE('',*,*,#145,.F.);
#70=ORIENTED_EDGE('',*,*,#153,.T.);
#71=ORIENTED_EDGE('',*,*,#150,.T.);
#72=ORIENTED_EDGE('',*,*,#154,.T.);
#73=ORIENTED_EDGE('',*,*,#111,.F.);
#74=ORIENTED_EDGE('',*,*,#155,.F.);
#75=ORIENTED_EDGE('',*,*,#140,.T.);
#76=ORIENTED_EDGE('',*,*,#144,.F.);
#77=ORIENTED_EDGE('',*,*,#148,.T.);
#78=ORIENTED_EDGE('',*,*,#151,.T.);
#79=ORIENTED_EDGE('',*,*,#153,.F.);
#80=ORIENTED_EDGE('',*,*,#110,.T.);
#81=ORIENTED_EDGE('',*,*,#114,.T.);
#82=ORIENTED_EDGE('',*,*,#117,.T.);
#83=ORIENTED_EDGE('',*,*,#120,.T.);
#84=ORIENTED_EDGE('',*,*,#123,.T.);
#85=ORIENTED_EDGE('',*,*,#126,.T.);
#86=ORIENTED_EDGE('',*,*,#129,.T.);
#87=ORIENTED_EDGE('',*,*,#132,.T.);
#88=ORIENTED_EDGE('',*,*,#135,.T.);
#89=ORIENTED_EDGE('',*,*,#138,.T.);
#90=ORIENTED_EDGE('',*,*,#141,.T.);
#91=ORIENTED_EDGE('',*,*,#155,.T.);
#92=ORIENTED_EDGE('',*,*,#142,.T.);
#93=ORIENTED_EDGE('',*,*,#152,.T.);
#94=ORIENTED_EDGE('',*,*,#149,.F.);
#95=ORIENTED_EDGE('',*,*,#146,.F.);
#96=ORIENTED_EDGE('',*,*,#108,.F.);
#97=ORIENTED_EDGE('',*,*,#154,.F.);
#98=ORIENTED_EDGE('',*,*,#139,.F.);
#99=ORIENTED_EDGE('',*,*,#136,.F.);
#100=ORIENTED_EDGE('',*,*,#133,.F.);
#101=ORIENTED_EDGE('',*,*,#130,.F.);
#102=ORIENTED_EDGE('',*,*,#127,.F.);
#103=ORIENTED_EDGE('',*,*,#124,.F.);
#104=ORIENTED_EDGE('',*,*,#121,.F.);
#105=ORIENTED_EDGE('',*,*,#118,.F.);
#106=ORIENTED_EDGE('',*,*,#115,.F.);
#107=ORIENTED_EDGE('',*,*,#112,.F.);
#108=EDGE_CURVE('',#156,#157,#188,.T.);
#109=EDGE_CURVE('',#158,#157,#189,.T.);
#110=EDGE_CURVE('',#159,#158,#190,.T.);
#111=EDGE_CURVE('',#159,#156,#191,.T.);
#112=EDGE_CURVE('',#157,#160,#192,.T.);
#113=EDGE_CURVE('',#161,#160,#193,.T.);
#114=EDGE_CURVE('',#158,#161,#194,.T.);
#115=EDGE_CURVE('',#160,#162,#195,.T.);
#116=EDGE_CURVE('',#163,#162,#196,.T.);
#117=EDGE_CURVE('',#161,#163,#197,.T.);
#118=EDGE_CURVE('',#162,#164,#198,.T.);
#119=EDGE_CURVE('',#165,#164,#199,.T.);
#120=EDGE_CURVE('',#163,#165,#200,.T.);
#121=EDGE_CURVE('',#164,#166,#201,.T.);
#122=EDGE_CURVE('',#167,#166,#202,.T.);
#123=EDGE_CURVE('',#165,#167,#203,.T.);
#124=EDGE_CURVE('',#166,#168,#204,.T.);
#125=EDGE_CURVE('',#169,#168,#205,.T.);
#126=EDGE_CURVE('',#167,#169,#206,.T.);
#127=EDGE_CURVE('',#168,#170,#207,.T.);
#128=EDGE_CURVE('',#171,#170,#208,.T.);
#129=EDGE_CURVE('',#169,#171,#209,.T.);
#130=EDGE_CURVE('',#170,#172,#210,.T.);
#131=EDGE_CURVE('',#173,#172,#211,.T.);
#132=EDGE_CURVE('',#171,#173,#212,.T.);
#133=EDGE_CURVE('',#172,#174,#213,.T.);
#134=EDGE_CURVE('',#175,#174,#214,.T.);
#135=EDGE_CURVE('',#173,#175,#215,.T.);
#136=EDGE_CURVE('',#174,#176,#216,.T.);
#137=EDGE_CURVE('',#177,#176,#217,.T.);
#138=EDGE_CURVE('',#175,#177,#218,.T.);
#139=EDGE_CURVE('',#176,#178,#219,.T.);
#140=EDGE_CURVE('',#179,#178,#220,.T.);
#141=EDGE_CURVE('',#177,#179,#221,.T.);
#142=EDGE_CURVE('',#180,#181,#222,.T.);
#143=EDGE_CURVE('',#182,#180,#223,.T.);
#144=EDGE_CURVE('',#182,#183,#224,.T.);
#145=EDGE_CURVE('',#183,#181,#225,.T.);
#146=EDGE_CURVE('',#180,#184,#226,.T.);
#147=EDGE_CURVE('',#185,#184,#227,.T.);
#148=EDGE_CURVE('',#182,#185,#228,.T.);
#149=EDGE_CURVE('',#184,#186,#229,.T.);
#150=EDGE_CURVE('',#187,#186,#230,.T.);
#151=EDGE_CURVE('',#185,#187,#231,.T.);
#152=EDGE_CURVE('',#181,#186,#232,.T.);
#153=EDGE_CURVE('',#183,#187,#233,.T.);
#154=EDGE_CURVE('',#178,#156,#234,.T.);
#155=EDGE_CURVE('',#179,#159,#235,.T.);
#156=VERTEX_POINT('',#480);
#157=VERTEX_POINT('',#481);
#158=VERTEX_POINT('',#483);
#159=VERTEX_POINT('',#485);
#160=VERTEX_POINT('',#489);
#161=VERTEX_POINT('',#491);
#162=VERTEX_POINT('',#495);
#163=VERTEX_POINT('',#497);
#164=VERTEX_POINT('',#501);
#165=VERTEX_POINT('',#503);
#166=VERTEX_POINT('',#507);
#167=VERTEX_POINT('',#509);
#168=VERTEX_POINT('',#513);
#169=VERTEX_POINT('',#515);
#170=VERTEX_POINT('',#519);
#171=VERTEX_POINT('',#521);
#172=VERTEX_POINT('',#525);
#173=VERTEX_POINT('',#527);
#174=VERTEX_POINT('',#531);
#175=VERTEX_POINT('',#533);
#176=VERTEX_POINT('',#537);
#177=VERTEX_POINT('',#539);
#178=VERTEX_POINT('',#543);
#179=VERTEX_POINT('',#545);
#180=VERTEX_POINT('',#549);
#181=VERTEX_POINT('',#550);
#182=VERTEX_POINT('',#552);
#183=VERTEX_POINT('',#554);
#184=VERTEX_POINT('',#558);
#185=VERTEX_POINT('',#560);
#186=VERTEX_POINT('',#564);
#187=VERTEX_POINT('',#566);
#188=LINE('',#479,#236);
#189=LINE('',#482,#237);
#190=LINE('',#484,#238);
#191=LINE('',#486,#239);
#192=LINE('',#488,#240);
#193=LINE('',#490,#241);
#194=LINE('',#492,#242);
#195=LINE('',#494,#243);
#196=LINE('',#496,#244);
#197=LINE('',#498,#245);
#198=LINE('',#500,#246);
#199=LINE('',#502,#247);
#200=LINE('',#504,#248);
#201=LINE('',#506,#249);
#202=LINE('',#508,#250);
#203=LINE('',#510,#251);
#204=LINE('',#512,#252);
#205=LINE('',#514,#253);
#206=LINE('',#516,#254);
#207=LINE('',#518,#255);
#208=LINE('',#520,#256);
#209=LINE('',#522,#257);
#210=LINE('',#524,#258);
#211=LINE('',#526,#259);
#212=LINE('',#528,#260);
#213=LINE('',#530,#261);
#214=LINE('',#532,#262);
#215=LINE('',#534,#263);
#216=LINE('',#536,#264);
#217=LINE('',#538,#265);
#218=LINE('',#540,#266);
#219=LINE('',#542,#267);
#220=LINE('',#544,#268);
#221=LINE('',#546,#269);
#222=LINE('',#548,#270);
#223=LINE('',#551,#271);
#224=LINE('',#553,#272);
#225=LINE('',#555,#273);
#226=LINE('',#557,#274);
#227=LINE('',#559,#275);
#228=LINE('',#561,#276);
#229=LINE('',#563,#277);
#230=LINE('',#565,#278);
#231=LINE('',#567,#279);
#232=LINE('',#569,#280);
#233=LINE('',#570,#281);
#234=LINE('',#572,#282);
#235=LINE('',#573,#283);
#236=VECTOR('',#395,1.);
#237=VECTOR('',#396,1.);
#238=VECTOR('',#397,1.);
#239=VECTOR('',#398,1.);
#240=VECTOR('',#401,1.);
#241=VECTOR('',#402,1.);
#242=VECTOR('',#403,1.);
#243=VECTOR('',#406,1.);
#244=VECTOR('',#407,1.);
#245=VECTOR('',#408,1.);
#246=VECTOR('',#411,1.);
#247=VECTOR('',#412,1.);
#248=VECTOR('',#413,1.);
#249=VECTOR('',#416,1.);
#250=VECTOR('',#417,1.);
#251=VECTOR('',#418,1.);
#252=VECTOR('',#421,1.);
#253=VECTOR('',#422,1.);
#254=VECTOR('',#423,1.);
#255=VECTOR('',#426,1.);
#256=VECTOR('',#427,1.);
#257=VECTOR('',#428,1.);
#258=VECTOR('',#431,1.);
#259=VECTOR('',#432,1.);
#260=VECTOR('',#433,1.);
#261=VECTOR('',#436,1.);
#262=VECTOR('',#437,1.);
#263=VECTOR('',#438,1.);
#264=VECTOR('',#441,1.);
#265=VECTOR('',#442,1.);
#266=VECTOR('',#443,1.);
#267=VECTOR('',#446,1.);
#268=VECTOR('',#447,1.);
#269=VECTOR('',#448,1.);
#270=VECTOR('',#451,1.);
#271=VECTOR('',#452,1.);
#272=VECTOR('',#453,1.);
#273=VECTOR('',#454,1.);
#274=VECTOR('',#457,1.);
#275=VECTOR('',#458,1.);
#276=VECTOR('',#459,1.);
#277=VECTOR('',#462,1.);
#278=VECTOR('',#463,1.);
#279=VECTOR('',#464,1.);
#280=VECTOR('',#467,1.);
#281=VECTOR('',#468,1.);
#282=VECTOR('',#471,1.);
#283=VECTOR('',#472,1.);
#284=EDGE_LOOP('',(#12,#13,#14,#15));
#285=EDGE_LOOP('',(#16,#17,#18,#19));
#286=EDGE_LOOP('',(#20,#21,#22,#23));
#287=EDGE_LOOP('',(#24,#25,#26,#27));
#288=EDGE_LOOP('',(#28,#29,#30,#31));
#289=EDGE_LOOP('',(#32,#33,#34,#35));
#290=EDGE_LOOP('',(#36,#37,#38,#39));
#291=EDGE_LOOP('',(#40,#41,#42,#43));
#292=EDGE_LOOP('',(#44,#45,#46,#47));
#293=EDGE_LOOP('',(#48,#49,#50,#51));
#294=EDGE_LOOP('',(#52,#53,#54,#55));
#295=EDGE_LOOP('',(#56,#57,#58,#59));
#296=EDGE_LOOP('',(#60,#61,#62,#63));
#297=EDGE_LOOP('',(#64,#65,#66,#67));
#298=EDGE_LOOP('',(#68,#69,#70,#71));
#299=EDGE_LOOP('',(#72,#73,#74,#75));
#300=EDGE_LOOP('',(#76,#77,#78,#79));
#301=EDGE_LOOP('',(#80,#81,#82,#83,#84,#85,#86,#87,#88,#89,#90,#91));
#302=EDGE_LOOP('',(#92,#93,#94,#95));
#303=EDGE_LOOP('',(#96,#97,#98,#99,#100,#101,#102,#103,#104,#105,#106,#107));
#304=FACE_BOUND('',#284,.T.);
#305=FACE_BOUND('',#285,.T.);
#306=FACE_BOUND('',#286,.T.);
#307=FACE_BOUND('',#287,.T.);
#308=FACE_BOUND('',#288,.T.);
#309=FACE_BOUND('',#289,.T.);
#310=FACE_BOUND('',#290,.T.);
#311=FACE_BOUND('',#291,.T.);
#312=FACE_BOUND('',#292,.T.);
#313=FACE_BOUND('',#293,.T.);
#314=FACE_BOUND('',#294,.T.);
#315=FACE_BOUND('',#295,.T.);
#316=FACE_BOUND('',#296,.T.);
#317=FACE_BOUND('',#297,.T.);
#318=FACE_BOUND('',#298,.T.);
#319=FACE_BOUND('',#299,.T.);
#320=FACE_BOUND('',#300,.T.);
#321=FACE_BOUND('',#301,.T.);
#322=FACE_BOUND('',#302,.T.);
#323=FACE_BOUND('',#303,.T.);
#324=PLANE('',#373);
#325=PLANE('',#374);
#326=PLANE('',#375);
#327=PLANE('',#376);
#328=PLANE('',#377);
#329=PLANE('',#378);
#330=PLANE('',#379);
#331=PLANE('',#380);
#332=PLANE('',#381);
#333=PLANE('',#382);
#334=PLANE('',#383);
#335=PLANE('',#384);
#336=PLANE('',#385);
#337=PLANE('',#386);
#338=PLANE('',#387);
#339=PLANE('',#388);
#340=PLANE('',#389);
#341=PLANE('',#390);
#342=ADVANCED_FACE('',(#304),#324,.F.);
#343=ADVANCED_FACE('',(#305),#325,.F.);
#344=ADVANCED_FACE('',(#306),#326,.F.);
#345=ADVANCED_FACE('',(#307),#327,.F.);
#346=ADVANCED_FACE('',(#308),#328,.F.);
#347=ADVANCED_FACE('',(#309),#329,.F.);
#348=ADVANCED_FACE('',(#310),#330,.F.);
#349=ADVANCED_FACE('',(#311),#331,.F.);
#350=ADVANCED_FACE('',(#312),#332,.F.);
#351=ADVANCED_FACE('',(#313),#333,.F.);
#352=ADVANCED_FACE('',(#314),#334,.F.);
#353=ADVANCED_FACE('',(#315),#335,.T.);
#354=ADVANCED_FACE('',(#316),#336,.F.);
#355=ADVANCED_FACE('',(#317),#337,.F.);
#356=ADVANCED_FACE('',(#318),#338,.T.);
#357=ADVANCED_FACE('',(#319),#339,.F.);
#358=ADVANCED_FACE('',(#320,#321),#340,.T.);
#359=ADVANCED_FACE('',(#322,#323),#341,.F.);
#360=CLOSED_SHELL('',(#342,#343,#344,#345,#346,#347,#348,#349,#350,#351,
#352,#353,#354,#355,#356,#357,#358,#359));
#361=STYLED_ITEM('',(#362),#369);
#362=PRESENTATION_STYLE_ASSIGNMENT((#363));
#363=SURFACE_STYLE_USAGE(.BOTH.,#364);
#364=SURFACE_SIDE_STYLE('',(#365));
#365=SURFACE_STYLE_FILL_AREA(#366);
#366=FILL_AREA_STYLE('',(#367));
#367=FILL_AREA_STYLE_COLOUR('',#368);
#368=COLOUR_RGB('',0.615686274509804,0.811764705882353,0.929411764705882);
#369=MANIFOLD_SOLID_BREP('Part 1',#360);
#370=SHAPE_DEFINITION_REPRESENTATION(#582,#371);
#371=SHAPE_REPRESENTATION('Part 1',(#372),#577);
#372=AXIS2_PLACEMENT_3D('',#477,#391,#392);
#373=AXIS2_PLACEMENT_3D('',#478,#393,#394);
#374=AXIS2_PLACEMENT_3D('',#487,#399,#400);
#375=AXIS2_PLACEMENT_3D('',#493,#404,#405);
#376=AXIS2_PLACEMENT_3D('',#499,#409,#410);
#377=AXIS2_PLACEMENT_3D('',#505,#414,#415);
#378=AXIS2_PLACEMENT_3D('',#511,#419,#420);
#379=AXIS2_PLACEMENT_3D('',#517,#424,#425);
#380=AXIS2_PLACEMENT_3D('',#523,#429,#430);
#381=AXIS2_PLACEMENT_3D('',#529,#434,#435);
#382=AXIS2_PLACEMENT_3D('',#535,#439,#440);
#383=AXIS2_PLACEMENT_3D('',#541,#444,#445);
#384=AXIS2_PLACEMENT_3D('',#547,#449,#450);
#385=AXIS2_PLACEMENT_3D('',#556,#455,#456);
#386=AXIS2_PLACEMENT_3D('',#562,#460,#461);
#387=AXIS2_PLACEMENT_3D('',#568,#465,#466);
#388=AXIS2_PLACEMENT_3D('',#571,#469,#470);
#389=AXIS2_PLACEMENT_3D('',#574,#473,#474);
#390=AXIS2_PLACEMENT_3D('',#575,#475,#476);
#391=DIRECTION('',(0.,0.,1.));
#392=DIRECTION('',(1.,0.,0.));
#393=DIRECTION('',(0.,1.,0.));
#394=DIRECTION('',(0.,0.,1.));
#395=DIRECTION('',(1.,0.,0.));
#396=DIRECTION('',(0.,0.,-1.));
#397=DIRECTION('',(1.,0.,0.));
#398=DIRECTION('',(0.,0.,-1.));
#399=DIRECTION('',(-1.,0.,0.));
#400=DIRECTION('',(0.,0.,1.));
#401=DIRECTION('',(0.,1.,0.));
#402=DIRECTION('',(0.,0.,-1.));
#403=DIRECTION('',(0.,1.,0.));
#404=DIRECTION('',(0.,1.,0.));
#405=DIRECTION('',(0.,0.,1.));
#406=DIRECTION('',(1.,0.,0.));
#407=DIRECTION('',(0.,0.,-1.));
#408=DIRECTION('',(1.,0.,0.));
#409=DIRECTION('',(1.,1.0842021724855E-16,0.));
#410=DIRECTION('',(-1.0842021724855E-16,1.,0.));
#411=DIRECTION('',(1.0842021724855E-16,-1.,0.));
#412=DIRECTION('',(0.,0.,-1.));
#413=DIRECTION('',(1.0842021724855E-16,-1.,0.));
#414=DIRECTION('',(-3.25260651745651E-16,1.,0.));
#415=DIRECTION('',(-1.,-3.25260651745651E-16,0.));
#416=DIRECTION('',(1.,3.25260651745651E-16,0.));
#417=DIRECTION('',(0.,0.,-1.));
#418=DIRECTION('',(1.,3.25260651745651E-16,0.));
#419=DIRECTION('',(1.,2.16840434497101E-16,0.));
#420=DIRECTION('',(-2.16840434497101E-16,1.,0.));
#421=DIRECTION('',(2.16840434497101E-16,-1.,0.));
#422=DIRECTION('',(0.,0.,-1.));
#423=DIRECTION('',(2.16840434497101E-16,-1.,0.));
#424=DIRECTION('',(1.0842021724855E-16,-1.,0.));
#425=DIRECTION('',(1.,1.0842021724855E-16,0.));
#426=DIRECTION('',(-1.,-1.0842021724855E-16,0.));
#427=DIRECTION('',(0.,0.,-1.));
#428=DIRECTION('',(-1.,-1.0842021724855E-16,0.));
#429=DIRECTION('',(1.,1.0842021724855E-16,0.));
#430=DIRECTION('',(-1.0842021724855E-16,1.,0.));
#431=DIRECTION('',(1.0842021724855E-16,-1.,0.));
#432=DIRECTION('',(0.,0.,-1.));
#433=DIRECTION('',(1.0842021724855E-16,-1.,0.));
#434=DIRECTION('',(2.16840434497101E-16,-1.,0.));
#435=DIRECTION('',(1.,2.16840434497101E-16,0.));
#436=DIRECTION('',(-1.,-2.16840434497101E-16,0.));
#437=DIRECTION('',(0.,0.,-1.));
#438=DIRECTION('',(-1.,-2.16840434497101E-16,0.));
#439=DIRECTION('',(-1.,0.,0.));
#440=DIRECTION('',(0.,0.,1.));
#441=DIRECTION('',(0.,1.,0.));
#442=DIRECTION('',(0.,0.,-1.));
#443=DIRECTION('',(0.,1.,0.));
#444=DIRECTION('',(1.0842021724855E-16,-1.,0.));
#445=DIRECTION('',(1.,1.0842021724855E-16,0.));
#446=DIRECTION('',(-1.,-1.0842021724855E-16,0.));
#447=DIRECTION('',(0.,0.,-1.));
#448=DIRECTION('',(-1.,-1.0842021724855E-16,0.));
#449=DIRECTION('',(-1.,-1.33440267382831E-16,0.));
#450=DIRECTION('',(1.33440267382831E-16,-1.,0.));
#451=DIRECTION('',(-1.33440267382831E-16,1.,0.));
#452=DIRECTION('',(0.,0.,-1.));
#453=DIRECTION('',(-1.33440267382831E-16,1.,0.));
#454=DIRECTION('',(0.,0.,-1.));
#455=DIRECTION('',(0.,1.,0.));
#456=DIRECTION('',(0.,0.,1.));
#457=DIRECTION('',(1.,0.,0.));
#458=DIRECTION('',(0.,0.,-1.));
#459=DIRECTION('',(1.,0.,0.));
#460=DIRECTION('',(-1.,-1.33440267382831E-16,0.));
#461=DIRECTION('',(1.33440267382831E-16,-1.,0.));
#462=DIRECTION('',(-1.33440267382831E-16,1.,0.));
#463=DIRECTION('',(0.,0.,-1.));
#464=DIRECTION('',(-1.33440267382831E-16,1.,0.));
#465=DIRECTION('',(0.,1.,0.));
#466=DIRECTION('',(0.,0.,1.));
#467=DIRECTION('',(1.,0.,0.));
#468=DIRECTION('',(1.,0.,0.));
#469=DIRECTION('',(-1.,0.,0.));
#470=DIRECTION('',(0.,0.,1.));
#471=DIRECTION('',(0.,1.,0.));
#472=DIRECTION('',(0.,1.,0.));
#473=DIRECTION('',(0.,0.,1.));
#474=DIRECTION('',(1.,0.,0.));
#475=DIRECTION('',(0.,0.,1.));
#476=DIRECTION('',(1.,0.,0.));
#477=CARTESIAN_POINT('',(0.,0.,0.));
#478=CARTESIAN_POINT('',(-0.0005,0.00025,0.0042));
#479=CARTESIAN_POINT('',(-0.0005,0.00025,0.));
#480=CARTESIAN_POINT('',(-0.00075,0.00025,0.));
#481=CARTESIAN_POINT('',(-0.00025,0.00025,0.));
#482=CARTESIAN_POINT('',(-0.00025,0.00025,0.0042));
#483=CARTESIAN_POINT('',(-0.00025,0.00025,0.0042));
#484=CARTESIAN_POINT('',(-0.0005,0.00025,0.0042));
#485=CARTESIAN_POINT('',(-0.00075,0.00025,0.0042));
#486=CARTESIAN_POINT('',(-0.00075,0.00025,0.0042));
#487=CARTESIAN_POINT('',(-0.00025,0.0005,0.0042));
#488=CARTESIAN_POINT('',(-0.00025,0.0005,0.));
#489=CARTESIAN_POINT('',(-0.00025,0.00075,0.));
#490=CARTESIAN_POINT('',(-0.00025,0.00075,0.0042));
#491=CARTESIAN_POINT('',(-0.00025,0.00075,0.0042));
#492=CARTESIAN_POINT('',(-0.00025,0.0005,0.0042));
#493=CARTESIAN_POINT('',(-1.0842021724855E-19,0.00075,0.0042));
#494=CARTESIAN_POINT('',(-1.0842021724855E-19,0.00075,0.));
#495=CARTESIAN_POINT('',(0.00025,0.00075,0.));
#496=CARTESIAN_POINT('',(0.00025,0.00075,0.0042));
#497=CARTESIAN_POINT('',(0.00025,0.00075,0.0042));
#498=CARTESIAN_POINT('',(-1.0842021724855E-19,0.00075,0.0042));
#499=CARTESIAN_POINT('',(0.00025,0.0005,0.0042));
#500=CARTESIAN_POINT('',(0.00025,0.0005,0.));
#501=CARTESIAN_POINT('',(0.00025,0.00025,0.));
#502=CARTESIAN_POINT('',(0.00025,0.00025,0.0042));
#503=CARTESIAN_POINT('',(0.00025,0.00025,0.0042));
#504=CARTESIAN_POINT('',(0.00025,0.0005,0.0042));
#505=CARTESIAN_POINT('',(0.0005,0.00025,0.0042));
#506=CARTESIAN_POINT('',(0.0005,0.00025,0.));
#507=CARTESIAN_POINT('',(0.00075,0.00025,0.));
#508=CARTESIAN_POINT('',(0.00075,0.00025,0.0042));
#509=CARTESIAN_POINT('',(0.00075,0.00025,0.0042));
#510=CARTESIAN_POINT('',(0.0005,0.00025,0.0042));
#511=CARTESIAN_POINT('',(0.00075,-5.42101086242752E-20,0.0042));
#512=CARTESIAN_POINT('',(0.00075,-5.42101086242752E-20,0.));
#513=CARTESIAN_POINT('',(0.00075,-0.00025,0.));
#514=CARTESIAN_POINT('',(0.00075,-0.00025,0.0042));
#515=CARTESIAN_POINT('',(0.00075,-0.00025,0.0042));
#516=CARTESIAN_POINT('',(0.00075,-5.42101086242752E-20,0.0042));
#517=CARTESIAN_POINT('',(0.0005,-0.00025,0.0042));
#518=CARTESIAN_POINT('',(0.0005,-0.00025,0.));
#519=CARTESIAN_POINT('',(0.00025,-0.00025,0.));
#520=CARTESIAN_POINT('',(0.00025,-0.00025,0.0042));
#521=CARTESIAN_POINT('',(0.00025,-0.00025,0.0042));
#522=CARTESIAN_POINT('',(0.0005,-0.00025,0.0042));
#523=CARTESIAN_POINT('',(0.00025,-0.0005,0.0042));
#524=CARTESIAN_POINT('',(0.00025,-0.0005,0.));
#525=CARTESIAN_POINT('',(0.00025,-0.00075,0.));
#526=CARTESIAN_POINT('',(0.00025,-0.00075,0.0042));
#527=CARTESIAN_POINT('',(0.00025,-0.00075,0.0042));
#528=CARTESIAN_POINT('',(0.00025,-0.0005,0.0042));
#529=CARTESIAN_POINT('',(0.,-0.00075,0.0042));
#530=CARTESIAN_POINT('',(0.,-0.00075,0.));
#531=CARTESIAN_POINT('',(-0.00025,-0.00075,0.));
#532=CARTESIAN_POINT('',(-0.00025,-0.00075,0.0042));
#533=CARTESIAN_POINT('',(-0.00025,-0.00075,0.0042));
#534=CARTESIAN_POINT('',(0.,-0.00075,0.0042));
#535=CARTESIAN_POINT('',(-0.00025,-0.0005,0.0042));
#536=CARTESIAN_POINT('',(-0.00025,-0.0005,0.));
#537=CARTESIAN_POINT('',(-0.00025,-0.00025,0.));
#538=CARTESIAN_POINT('',(-0.00025,-0.00025,0.0042));
#539=CARTESIAN_POINT('',(-0.00025,-0.00025,0.0042));
#540=CARTESIAN_POINT('',(-0.00025,-0.0005,0.0042));
#541=CARTESIAN_POINT('',(-0.0005,-0.00025,0.0042));
#542=CARTESIAN_POINT('',(-0.0005,-0.00025,0.));
#543=CARTESIAN_POINT('',(-0.00075,-0.00025,0.));
#544=CARTESIAN_POINT('',(-0.00075,-0.00025,0.0042));
#545=CARTESIAN_POINT('',(-0.00075,-0.00025,0.0042));
#546=CARTESIAN_POINT('',(-0.0005,-0.00025,0.0042));
#547=CARTESIAN_POINT('',(-0.00325,-4.33680868994202E-19,0.0042));
#548=CARTESIAN_POINT('',(-0.00325,-4.33680868994202E-19,0.));
#549=CARTESIAN_POINT('',(-0.00325,-0.00325,0.));
#550=CARTESIAN_POINT('',(-0.00325,0.00325,0.));
#551=CARTESIAN_POINT('',(-0.00325,-0.00325,0.0042));
#552=CARTESIAN_POINT('',(-0.00325,-0.00325,0.0042));
#553=CARTESIAN_POINT('',(-0.00325,-4.33680868994202E-19,0.0042));
#554=CARTESIAN_POINT('',(-0.00325,0.00325,0.0042));
#555=CARTESIAN_POINT('',(-0.00325,0.00325,0.0042));
#556=CARTESIAN_POINT('',(4.33680868994202E-19,-0.00325,0.0042));
#557=CARTESIAN_POINT('',(4.33680868994202E-19,-0.00325,0.));
#558=CARTESIAN_POINT('',(0.00325,-0.00325,0.));
#559=CARTESIAN_POINT('',(0.00325,-0.00325,0.0042));
#560=CARTESIAN_POINT('',(0.00325,-0.00325,0.0042));
#561=CARTESIAN_POINT('',(4.33680868994202E-19,-0.00325,0.0042));
#562=CARTESIAN_POINT('',(0.00325,-4.33680868994202E-19,0.0042));
#563=CARTESIAN_POINT('',(0.00325,-4.33680868994202E-19,0.));
#564=CARTESIAN_POINT('',(0.00325,0.00325,0.));
#565=CARTESIAN_POINT('',(0.00325,0.00325,0.0042));
#566=CARTESIAN_POINT('',(0.00325,0.00325,0.0042));
#567=CARTESIAN_POINT('',(0.00325,-4.33680868994202E-19,0.0042));
#568=CARTESIAN_POINT('',(-4.33680868994202E-19,0.00325,0.0042));
#569=CARTESIAN_POINT('',(-4.33680868994202E-19,0.00325,0.));
#570=CARTESIAN_POINT('',(-4.33680868994202E-19,0.00325,0.0042));
#571=CARTESIAN_POINT('',(-0.00075,-5.42101086242752E-20,0.0042));
#572=CARTESIAN_POINT('',(-0.00075,-5.42101086242752E-20,0.));
#573=CARTESIAN_POINT('',(-0.00075,-5.42101086242752E-20,0.0042));
#574=CARTESIAN_POINT('',(0.,0.,0.0042));
#575=CARTESIAN_POINT('',(0.,0.,0.));
#576=MECHANICAL_DESIGN_GEOMETRIC_PRESENTATION_REPRESENTATION('',(#361),
#577);
#577=(
GEOMETRIC_REPRESENTATION_CONTEXT(3)
GLOBAL_UNCERTAINTY_ASSIGNED_CONTEXT((#578))
GLOBAL_UNIT_ASSIGNED_CONTEXT((#581,#580,#579))
REPRESENTATION_CONTEXT('Part 1','TOP_LEVEL_ASSEMBLY_PART')
);
#578=UNCERTAINTY_MEASURE_WITH_UNIT(LENGTH_MEASURE(1.E-8),#581,
'DISTANCE_ACCURACY_VALUE','Maximum Tolerance applied to model');
#579=(
NAMED_UNIT(*)
SI_UNIT($,.STERADIAN.)
SOLID_ANGLE_UNIT()
);
#580=(
NAMED_UNIT(*)
PLANE_ANGLE_UNIT()
SI_UNIT($,.RADIAN.)
);
#581=(
LENGTH_UNIT()
NAMED_UNIT(*)
SI_UNIT($,.METRE.)
);
#582=PRODUCT_DEFINITION_SHAPE('','',#583);
#583=PRODUCT_DEFINITION('','',#585,#584);
#584=PRODUCT_DEFINITION_CONTEXT('',#591,'design');
#585=PRODUCT_DEFINITION_FORMATION_WITH_SPECIFIED_SOURCE('','',#587,
 .NOT_KNOWN.);
#586=PRODUCT_RELATED_PRODUCT_CATEGORY('','',(#587));
#587=PRODUCT('Part 1','Part 1','Part 1',(#589));
#588=PRODUCT_CATEGORY('','');
#589=PRODUCT_CONTEXT('',#591,'mechanical');
#590=APPLICATION_PROTOCOL_DEFINITION('international standard',
'ap242_managed_model_based_3d_engineering',2011,#591);
#591=APPLICATION_CONTEXT('managed model based 3d engineering');
ENDSEC;
END-ISO-10303-21;
