ISO-10303-21;
HEADER;
/* Generated by software containing ST-Developer
 * from STEP Tools, Inc. (www.steptools.com) 
 */
/* OPTION: using custom schema-name function */

FILE_DESCRIPTION(
/* description */ (''),
/* implementation_level */ '2;1');

FILE_NAME(
/* name */ 'mill-max-0926-0-15-20-76-14-11-0.stp',
/* time_stamp */ '2024-06-21T13:42:44+02:00',
/* author */ (''),
/* organization */ (''),
/* preprocessor_version */ 'ST-DEVELOPER v18.1',
/* originating_system */ 'SIEMENS PLM Software NX 1988',
/* authorisation */ '');

FILE_SCHEMA (('AUTOMOTIVE_DESIGN { 1 0 10303 214 3 1 1 1 }'));
ENDSEC;

DATA;
#10=SHAPE_REPRESENTATION_RELATIONSHIP('None',
'relationship between mill-max-0926-0-15-20-76-14-11-0-None and mill-m
ax-0926-0-15-20-76-14-11-0-None',#22,#11);
#11=ADVANCED_BREP_SHAPE_REPRESENTATION(
'mill-max-0926-0-15-20-76-14-11-0-None',(#32),#691);
#12=SHAPE_DEFINITION_REPRESENTATION(#13,#22);
#13=PRODUCT_DEFINITION_SHAPE('','',#14);
#14=PRODUCT_DEFINITION(' ','',#16,#15);
#15=PRODUCT_DEFINITION_CONTEXT('part definition',#21,'design');
#16=PRODUCT_DEFINITION_FORMATION_WITH_SPECIFIED_SOURCE(' ',' ',#18,
 .NOT_KNOWN.);
#17=PRODUCT_RELATED_PRODUCT_CATEGORY('part','',(#18));
#18=PRODUCT('mill-max-0926-0-15-20-76-14-11-0',
'mill-max-0926-0-15-20-76-14-11-0',' ',(#19));
#19=PRODUCT_CONTEXT(' ',#21,'mechanical');
#20=APPLICATION_PROTOCOL_DEFINITION('international standard',
'automotive_design',2010,#21);
#21=APPLICATION_CONTEXT(
'core data for automotive mechanical design processes');
#22=SHAPE_REPRESENTATION('mill-max-0926-0-15-20-76-14-11-0-None',(#391),
#691);
#23=PRESENTATION_LAYER_ASSIGNMENT('1','Layer 1',(#32));
#24=STYLED_ITEM('',(#25),#32);
#25=PRESENTATION_STYLE_ASSIGNMENT((#26));
#26=SURFACE_STYLE_USAGE(.BOTH.,#27);
#27=SURFACE_SIDE_STYLE('',(#28));
#28=SURFACE_STYLE_FILL_AREA(#29);
#29=FILL_AREA_STYLE('',(#30));
#30=FILL_AREA_STYLE_COLOUR('',#31);
#31=COLOUR_RGB('pale brown',0.941176470588235,0.8,0.525490196078431);
#32=MANIFOLD_SOLID_BREP('REVOLVE1',#33);
#33=CLOSED_SHELL('',(#61,#62,#63,#64,#65,#66,#67,#68,#69,#70,#71,#72,#73,
#74,#75,#76,#77,#78,#79,#80,#81,#82,#83,#84,#85));
#34=SPHERICAL_SURFACE('',#431,0.0209);
#35=SPHERICAL_SURFACE('',#435,0.0209);
#36=PLANE('',#400);
#37=PLANE('',#406);
#38=PLANE('',#412);
#39=PLANE('',#424);
#40=PLANE('',#433);
#41=FACE_BOUND('',#115,.T.);
#42=FACE_BOUND('',#116,.T.);
#43=FACE_BOUND('',#118,.T.);
#44=FACE_BOUND('',#119,.T.);
#45=FACE_BOUND('',#121,.T.);
#46=FACE_BOUND('',#122,.T.);
#47=FACE_BOUND('',#127,.T.);
#48=FACE_BOUND('',#128,.T.);
#49=CYLINDRICAL_SURFACE('',#396,0.035);
#50=CYLINDRICAL_SURFACE('',#402,0.0425);
#51=CYLINDRICAL_SURFACE('',#408,0.0295);
#52=CYLINDRICAL_SURFACE('',#414,0.032);
#53=CYLINDRICAL_SURFACE('',#418,0.0295);
#54=CYLINDRICAL_SURFACE('',#427,0.0209);
#55=CYLINDRICAL_SURFACE('',#436,0.0209);
#56=CYLINDRICAL_SURFACE('',#440,0.0295);
#57=CYLINDRICAL_SURFACE('',#443,0.032);
#58=CYLINDRICAL_SURFACE('',#444,0.0295);
#59=CYLINDRICAL_SURFACE('',#445,0.0425);
#60=CYLINDRICAL_SURFACE('',#447,0.035);
#61=ADVANCED_FACE('NONE',(#92),#86,.T.);
#62=ADVANCED_FACE('NONE',(#93),#49,.T.);
#63=ADVANCED_FACE('NONE',(#41,#42),#36,.F.);
#64=ADVANCED_FACE('NONE',(#94),#50,.T.);
#65=ADVANCED_FACE('NONE',(#43,#44),#37,.F.);
#66=ADVANCED_FACE('NONE',(#95),#51,.T.);
#67=ADVANCED_FACE('NONE',(#45,#46),#38,.F.);
#68=ADVANCED_FACE('NONE',(#96),#52,.T.);
#69=ADVANCED_FACE('NONE',(#97),#87,.T.);
#70=ADVANCED_FACE('NONE',(#98),#53,.T.);
#71=ADVANCED_FACE('NONE',(#99),#88,.T.);
#72=ADVANCED_FACE('NONE',(#47,#48),#39,.F.);
#73=ADVANCED_FACE('NONE',(#100),#54,.T.);
#74=ADVANCED_FACE('NONE',(#101),#34,.T.);
#75=ADVANCED_FACE('NONE',(#102),#40,.F.);
#76=ADVANCED_FACE('NONE',(#103),#35,.T.);
#77=ADVANCED_FACE('NONE',(#104),#55,.T.);
#78=ADVANCED_FACE('NONE',(#105),#89,.T.);
#79=ADVANCED_FACE('NONE',(#106),#56,.T.);
#80=ADVANCED_FACE('NONE',(#107),#90,.T.);
#81=ADVANCED_FACE('NONE',(#108),#57,.T.);
#82=ADVANCED_FACE('NONE',(#109),#58,.T.);
#83=ADVANCED_FACE('NONE',(#110),#59,.T.);
#84=ADVANCED_FACE('NONE',(#111),#60,.T.);
#85=ADVANCED_FACE('NONE',(#112),#91,.T.);
#86=CONICAL_SURFACE('',#394,0.035,45.);
#87=CONICAL_SURFACE('',#416,0.0295,14.9999999999997);
#88=CONICAL_SURFACE('',#420,0.0275,45.);
#89=CONICAL_SURFACE('',#438,0.0275,45.);
#90=CONICAL_SURFACE('',#442,0.0295,14.9999999999997);
#91=CONICAL_SURFACE('',#448,0.035,45.);
#92=FACE_OUTER_BOUND('',#113,.T.);
#93=FACE_OUTER_BOUND('',#114,.T.);
#94=FACE_OUTER_BOUND('',#117,.T.);
#95=FACE_OUTER_BOUND('',#120,.T.);
#96=FACE_OUTER_BOUND('',#123,.T.);
#97=FACE_OUTER_BOUND('',#124,.T.);
#98=FACE_OUTER_BOUND('',#125,.T.);
#99=FACE_OUTER_BOUND('',#126,.T.);
#100=FACE_OUTER_BOUND('',#129,.T.);
#101=FACE_OUTER_BOUND('',#130,.T.);
#102=FACE_OUTER_BOUND('',#131,.T.);
#103=FACE_OUTER_BOUND('',#132,.T.);
#104=FACE_OUTER_BOUND('',#133,.T.);
#105=FACE_OUTER_BOUND('',#134,.T.);
#106=FACE_OUTER_BOUND('',#135,.T.);
#107=FACE_OUTER_BOUND('',#136,.T.);
#108=FACE_OUTER_BOUND('',#137,.T.);
#109=FACE_OUTER_BOUND('',#138,.T.);
#110=FACE_OUTER_BOUND('',#139,.T.);
#111=FACE_OUTER_BOUND('',#140,.T.);
#112=FACE_OUTER_BOUND('',#141,.T.);
#113=EDGE_LOOP('',(#174,#175,#176,#177));
#114=EDGE_LOOP('',(#178,#179,#180,#181));
#115=EDGE_LOOP('',(#182,#183));
#116=EDGE_LOOP('',(#184,#185));
#117=EDGE_LOOP('',(#186,#187,#188,#189));
#118=EDGE_LOOP('',(#190,#191));
#119=EDGE_LOOP('',(#192,#193));
#120=EDGE_LOOP('',(#194,#195,#196,#197));
#121=EDGE_LOOP('',(#198,#199));
#122=EDGE_LOOP('',(#200,#201));
#123=EDGE_LOOP('',(#202,#203,#204,#205));
#124=EDGE_LOOP('',(#206,#207,#208,#209));
#125=EDGE_LOOP('',(#210,#211,#212,#213));
#126=EDGE_LOOP('',(#214,#215,#216,#217));
#127=EDGE_LOOP('',(#218,#219));
#128=EDGE_LOOP('',(#220,#221));
#129=EDGE_LOOP('',(#222,#223,#224,#225,#226));
#130=EDGE_LOOP('',(#227,#228,#229,#230));
#131=EDGE_LOOP('',(#231,#232));
#132=EDGE_LOOP('',(#233,#234,#235,#236));
#133=EDGE_LOOP('',(#237,#238,#239,#240,#241));
#134=EDGE_LOOP('',(#242,#243,#244,#245));
#135=EDGE_LOOP('',(#246,#247,#248,#249));
#136=EDGE_LOOP('',(#250,#251,#252,#253));
#137=EDGE_LOOP('',(#254,#255,#256,#257));
#138=EDGE_LOOP('',(#258,#259,#260,#261));
#139=EDGE_LOOP('',(#262,#263,#264,#265));
#140=EDGE_LOOP('',(#266,#267,#268,#269));
#141=EDGE_LOOP('',(#270,#271,#272,#273));
#142=CIRCLE('',#392,0.03);
#143=CIRCLE('',#393,0.035);
#144=CIRCLE('',#395,0.035);
#145=CIRCLE('',#397,0.0425);
#146=CIRCLE('',#398,0.0425);
#147=CIRCLE('',#399,0.035);
#148=CIRCLE('',#401,0.0425);
#149=CIRCLE('',#403,0.0295);
#150=CIRCLE('',#404,0.0295);
#151=CIRCLE('',#405,0.0425);
#152=CIRCLE('',#407,0.0295);
#153=CIRCLE('',#409,0.032);
#154=CIRCLE('',#410,0.032);
#155=CIRCLE('',#411,0.0295);
#156=CIRCLE('',#413,0.032);
#157=CIRCLE('',#415,0.0295);
#158=CIRCLE('',#417,0.0295);
#159=CIRCLE('',#419,0.0275);
#160=CIRCLE('',#421,0.0209);
#161=CIRCLE('',#422,0.0209);
#162=CIRCLE('',#423,0.0275);
#163=CIRCLE('',#425,0.0209);
#164=CIRCLE('',#426,0.0209);
#165=CIRCLE('',#428,0.0209);
#166=CIRCLE('',#429,0.0209);
#167=CIRCLE('',#430,0.0209);
#168=CIRCLE('',#432,0.03);
#169=CIRCLE('',#434,0.0209);
#170=CIRCLE('',#437,0.0295);
#171=CIRCLE('',#439,0.0295);
#172=CIRCLE('',#441,0.032);
#173=CIRCLE('',#446,0.035);
#174=ORIENTED_EDGE('',*,*,#305,.F.);
#175=ORIENTED_EDGE('',*,*,#306,.F.);
#176=ORIENTED_EDGE('',*,*,#307,.T.);
#177=ORIENTED_EDGE('',*,*,#308,.T.);
#178=ORIENTED_EDGE('',*,*,#309,.T.);
#179=ORIENTED_EDGE('',*,*,#310,.T.);
#180=ORIENTED_EDGE('',*,*,#311,.F.);
#181=ORIENTED_EDGE('',*,*,#308,.F.);
#182=ORIENTED_EDGE('',*,*,#312,.T.);
#183=ORIENTED_EDGE('',*,*,#313,.T.);
#184=ORIENTED_EDGE('',*,*,#314,.F.);
#185=ORIENTED_EDGE('',*,*,#310,.F.);
#186=ORIENTED_EDGE('',*,*,#315,.T.);
#187=ORIENTED_EDGE('',*,*,#316,.T.);
#188=ORIENTED_EDGE('',*,*,#317,.F.);
#189=ORIENTED_EDGE('',*,*,#313,.F.);
#190=ORIENTED_EDGE('',*,*,#318,.T.);
#191=ORIENTED_EDGE('',*,*,#319,.T.);
#192=ORIENTED_EDGE('',*,*,#320,.F.);
#193=ORIENTED_EDGE('',*,*,#316,.F.);
#194=ORIENTED_EDGE('',*,*,#321,.T.);
#195=ORIENTED_EDGE('',*,*,#322,.T.);
#196=ORIENTED_EDGE('',*,*,#323,.F.);
#197=ORIENTED_EDGE('',*,*,#319,.F.);
#198=ORIENTED_EDGE('',*,*,#324,.T.);
#199=ORIENTED_EDGE('',*,*,#325,.T.);
#200=ORIENTED_EDGE('',*,*,#326,.F.);
#201=ORIENTED_EDGE('',*,*,#322,.F.);
#202=ORIENTED_EDGE('',*,*,#327,.T.);
#203=ORIENTED_EDGE('',*,*,#328,.T.);
#204=ORIENTED_EDGE('',*,*,#329,.F.);
#205=ORIENTED_EDGE('',*,*,#325,.F.);
#206=ORIENTED_EDGE('',*,*,#330,.T.);
#207=ORIENTED_EDGE('',*,*,#331,.T.);
#208=ORIENTED_EDGE('',*,*,#332,.F.);
#209=ORIENTED_EDGE('',*,*,#328,.F.);
#210=ORIENTED_EDGE('',*,*,#333,.T.);
#211=ORIENTED_EDGE('',*,*,#334,.T.);
#212=ORIENTED_EDGE('',*,*,#335,.F.);
#213=ORIENTED_EDGE('',*,*,#331,.F.);
#214=ORIENTED_EDGE('',*,*,#336,.T.);
#215=ORIENTED_EDGE('',*,*,#337,.T.);
#216=ORIENTED_EDGE('',*,*,#338,.F.);
#217=ORIENTED_EDGE('',*,*,#334,.F.);
#218=ORIENTED_EDGE('',*,*,#339,.T.);
#219=ORIENTED_EDGE('',*,*,#340,.T.);
#220=ORIENTED_EDGE('',*,*,#341,.F.);
#221=ORIENTED_EDGE('',*,*,#337,.F.);
#222=ORIENTED_EDGE('',*,*,#342,.T.);
#223=ORIENTED_EDGE('',*,*,#343,.T.);
#224=ORIENTED_EDGE('',*,*,#344,.T.);
#225=ORIENTED_EDGE('',*,*,#345,.F.);
#226=ORIENTED_EDGE('',*,*,#340,.F.);
#227=ORIENTED_EDGE('',*,*,#346,.T.);
#228=ORIENTED_EDGE('',*,*,#347,.F.);
#229=ORIENTED_EDGE('',*,*,#343,.F.);
#230=ORIENTED_EDGE('',*,*,#348,.F.);
#231=ORIENTED_EDGE('',*,*,#306,.T.);
#232=ORIENTED_EDGE('',*,*,#349,.T.);
#233=ORIENTED_EDGE('',*,*,#347,.T.);
#234=ORIENTED_EDGE('',*,*,#346,.F.);
#235=ORIENTED_EDGE('',*,*,#350,.F.);
#236=ORIENTED_EDGE('',*,*,#344,.F.);
#237=ORIENTED_EDGE('',*,*,#348,.T.);
#238=ORIENTED_EDGE('',*,*,#342,.F.);
#239=ORIENTED_EDGE('',*,*,#339,.F.);
#240=ORIENTED_EDGE('',*,*,#345,.T.);
#241=ORIENTED_EDGE('',*,*,#350,.T.);
#242=ORIENTED_EDGE('',*,*,#341,.T.);
#243=ORIENTED_EDGE('',*,*,#336,.F.);
#244=ORIENTED_EDGE('',*,*,#351,.F.);
#245=ORIENTED_EDGE('',*,*,#338,.T.);
#246=ORIENTED_EDGE('',*,*,#351,.T.);
#247=ORIENTED_EDGE('',*,*,#333,.F.);
#248=ORIENTED_EDGE('',*,*,#352,.F.);
#249=ORIENTED_EDGE('',*,*,#335,.T.);
#250=ORIENTED_EDGE('',*,*,#352,.T.);
#251=ORIENTED_EDGE('',*,*,#330,.F.);
#252=ORIENTED_EDGE('',*,*,#353,.F.);
#253=ORIENTED_EDGE('',*,*,#332,.T.);
#254=ORIENTED_EDGE('',*,*,#353,.T.);
#255=ORIENTED_EDGE('',*,*,#327,.F.);
#256=ORIENTED_EDGE('',*,*,#324,.F.);
#257=ORIENTED_EDGE('',*,*,#329,.T.);
#258=ORIENTED_EDGE('',*,*,#326,.T.);
#259=ORIENTED_EDGE('',*,*,#321,.F.);
#260=ORIENTED_EDGE('',*,*,#318,.F.);
#261=ORIENTED_EDGE('',*,*,#323,.T.);
#262=ORIENTED_EDGE('',*,*,#320,.T.);
#263=ORIENTED_EDGE('',*,*,#315,.F.);
#264=ORIENTED_EDGE('',*,*,#312,.F.);
#265=ORIENTED_EDGE('',*,*,#317,.T.);
#266=ORIENTED_EDGE('',*,*,#314,.T.);
#267=ORIENTED_EDGE('',*,*,#309,.F.);
#268=ORIENTED_EDGE('',*,*,#354,.F.);
#269=ORIENTED_EDGE('',*,*,#311,.T.);
#270=ORIENTED_EDGE('',*,*,#349,.F.);
#271=ORIENTED_EDGE('',*,*,#305,.T.);
#272=ORIENTED_EDGE('',*,*,#354,.T.);
#273=ORIENTED_EDGE('',*,*,#307,.F.);
#274=VERTEX_POINT('',#585);
#275=VERTEX_POINT('',#586);
#276=VERTEX_POINT('',#588);
#277=VERTEX_POINT('',#590);
#278=VERTEX_POINT('',#594);
#279=VERTEX_POINT('',#596);
#280=VERTEX_POINT('',#600);
#281=VERTEX_POINT('',#601);
#282=VERTEX_POINT('',#606);
#283=VERTEX_POINT('',#608);
#284=VERTEX_POINT('',#612);
#285=VERTEX_POINT('',#613);
#286=VERTEX_POINT('',#618);
#287=VERTEX_POINT('',#620);
#288=VERTEX_POINT('',#624);
#289=VERTEX_POINT('',#625);
#290=VERTEX_POINT('',#630);
#291=VERTEX_POINT('',#632);
#292=VERTEX_POINT('',#636);
#293=VERTEX_POINT('',#638);
#294=VERTEX_POINT('',#642);
#295=VERTEX_POINT('',#644);
#296=VERTEX_POINT('',#648);
#297=VERTEX_POINT('',#650);
#298=VERTEX_POINT('',#654);
#299=VERTEX_POINT('',#655);
#300=VERTEX_POINT('',#660);
#301=VERTEX_POINT('',#662);
#302=VERTEX_POINT('',#664);
#303=VERTEX_POINT('',#668);
#304=VERTEX_POINT('',#669);
#305=EDGE_CURVE('NONE',#274,#275,#355,.T.);
#306=EDGE_CURVE('NONE',#276,#274,#142,.T.);
#307=EDGE_CURVE('NONE',#276,#277,#356,.T.);
#308=EDGE_CURVE('NONE',#277,#275,#143,.T.);
#309=EDGE_CURVE('NONE',#277,#278,#357,.T.);
#310=EDGE_CURVE('NONE',#278,#279,#144,.T.);
#311=EDGE_CURVE('NONE',#275,#279,#358,.T.);
#312=EDGE_CURVE('NONE',#280,#281,#145,.T.);
#313=EDGE_CURVE('NONE',#281,#280,#146,.T.);
#314=EDGE_CURVE('NONE',#279,#278,#147,.T.);
#315=EDGE_CURVE('NONE',#281,#282,#359,.T.);
#316=EDGE_CURVE('NONE',#282,#283,#148,.T.);
#317=EDGE_CURVE('NONE',#280,#283,#360,.T.);
#318=EDGE_CURVE('NONE',#284,#285,#149,.T.);
#319=EDGE_CURVE('NONE',#285,#284,#150,.T.);
#320=EDGE_CURVE('NONE',#283,#282,#151,.T.);
#321=EDGE_CURVE('NONE',#285,#286,#361,.T.);
#322=EDGE_CURVE('NONE',#286,#287,#152,.T.);
#323=EDGE_CURVE('NONE',#284,#287,#362,.T.);
#324=EDGE_CURVE('NONE',#288,#289,#153,.T.);
#325=EDGE_CURVE('NONE',#289,#288,#154,.T.);
#326=EDGE_CURVE('NONE',#287,#286,#155,.T.);
#327=EDGE_CURVE('NONE',#289,#290,#363,.T.);
#328=EDGE_CURVE('NONE',#290,#291,#156,.T.);
#329=EDGE_CURVE('NONE',#288,#291,#364,.T.);
#330=EDGE_CURVE('NONE',#290,#292,#365,.T.);
#331=EDGE_CURVE('NONE',#292,#293,#157,.T.);
#332=EDGE_CURVE('NONE',#291,#293,#366,.T.);
#333=EDGE_CURVE('NONE',#292,#294,#367,.T.);
#334=EDGE_CURVE('NONE',#294,#295,#158,.T.);
#335=EDGE_CURVE('NONE',#293,#295,#368,.T.);
#336=EDGE_CURVE('NONE',#294,#296,#369,.T.);
#337=EDGE_CURVE('NONE',#296,#297,#159,.T.);
#338=EDGE_CURVE('NONE',#295,#297,#370,.T.);
#339=EDGE_CURVE('NONE',#298,#299,#160,.T.);
#340=EDGE_CURVE('NONE',#299,#298,#161,.T.);
#341=EDGE_CURVE('NONE',#297,#296,#162,.T.);
#342=EDGE_CURVE('NONE',#299,#300,#371,.T.);
#343=EDGE_CURVE('NONE',#300,#301,#163,.T.);
#344=EDGE_CURVE('NONE',#301,#302,#164,.T.);
#345=EDGE_CURVE('NONE',#298,#302,#372,.T.);
#346=EDGE_CURVE('NONE',#303,#304,#165,.T.);
#347=EDGE_CURVE('NONE',#301,#304,#166,.T.);
#348=EDGE_CURVE('NONE',#303,#300,#167,.T.);
#349=EDGE_CURVE('NONE',#274,#276,#168,.T.);
#350=EDGE_CURVE('NONE',#302,#303,#169,.T.);
#351=EDGE_CURVE('NONE',#295,#294,#170,.T.);
#352=EDGE_CURVE('NONE',#293,#292,#171,.T.);
#353=EDGE_CURVE('NONE',#291,#290,#172,.T.);
#354=EDGE_CURVE('NONE',#275,#277,#173,.T.);
#355=LINE('',#584,#373);
#356=LINE('',#589,#374);
#357=LINE('',#593,#375);
#358=LINE('',#597,#376);
#359=LINE('',#605,#377);
#360=LINE('',#609,#378);
#361=LINE('',#617,#379);
#362=LINE('',#621,#380);
#363=LINE('',#629,#381);
#364=LINE('',#633,#382);
#365=LINE('',#635,#383);
#366=LINE('',#639,#384);
#367=LINE('',#641,#385);
#368=LINE('',#645,#386);
#369=LINE('',#647,#387);
#370=LINE('',#651,#388);
#371=LINE('',#659,#389);
#372=LINE('',#665,#390);
#373=VECTOR('',#451,1.);
#374=VECTOR('',#454,1.);
#375=VECTOR('',#459,1.);
#376=VECTOR('',#462,1.);
#377=VECTOR('',#473,1.);
#378=VECTOR('',#476,1.);
#379=VECTOR('',#487,1.);
#380=VECTOR('',#490,1.);
#381=VECTOR('',#501,1.);
#382=VECTOR('',#504,1.);
#383=VECTOR('',#507,1.);
#384=VECTOR('',#510,1.);
#385=VECTOR('',#513,1.);
#386=VECTOR('',#516,1.);
#387=VECTOR('',#519,1.);
#388=VECTOR('',#522,1.);
#389=VECTOR('',#533,1.);
#390=VECTOR('',#538,1.);
#391=AXIS2_PLACEMENT_3D('',#583,#449,#450);
#392=AXIS2_PLACEMENT_3D('',#587,#452,#453);
#393=AXIS2_PLACEMENT_3D('',#591,#455,#456);
#394=AXIS2_PLACEMENT_3D('',#592,#457,#458);
#395=AXIS2_PLACEMENT_3D('',#595,#460,#461);
#396=AXIS2_PLACEMENT_3D('',#598,#463,#464);
#397=AXIS2_PLACEMENT_3D('',#599,#465,#466);
#398=AXIS2_PLACEMENT_3D('',#602,#467,#468);
#399=AXIS2_PLACEMENT_3D('',#603,#469,#470);
#400=AXIS2_PLACEMENT_3D('',#604,#471,#472);
#401=AXIS2_PLACEMENT_3D('',#607,#474,#475);
#402=AXIS2_PLACEMENT_3D('',#610,#477,#478);
#403=AXIS2_PLACEMENT_3D('',#611,#479,#480);
#404=AXIS2_PLACEMENT_3D('',#614,#481,#482);
#405=AXIS2_PLACEMENT_3D('',#615,#483,#484);
#406=AXIS2_PLACEMENT_3D('',#616,#485,#486);
#407=AXIS2_PLACEMENT_3D('',#619,#488,#489);
#408=AXIS2_PLACEMENT_3D('',#622,#491,#492);
#409=AXIS2_PLACEMENT_3D('',#623,#493,#494);
#410=AXIS2_PLACEMENT_3D('',#626,#495,#496);
#411=AXIS2_PLACEMENT_3D('',#627,#497,#498);
#412=AXIS2_PLACEMENT_3D('',#628,#499,#500);
#413=AXIS2_PLACEMENT_3D('',#631,#502,#503);
#414=AXIS2_PLACEMENT_3D('',#634,#505,#506);
#415=AXIS2_PLACEMENT_3D('',#637,#508,#509);
#416=AXIS2_PLACEMENT_3D('',#640,#511,#512);
#417=AXIS2_PLACEMENT_3D('',#643,#514,#515);
#418=AXIS2_PLACEMENT_3D('',#646,#517,#518);
#419=AXIS2_PLACEMENT_3D('',#649,#520,#521);
#420=AXIS2_PLACEMENT_3D('',#652,#523,#524);
#421=AXIS2_PLACEMENT_3D('',#653,#525,#526);
#422=AXIS2_PLACEMENT_3D('',#656,#527,#528);
#423=AXIS2_PLACEMENT_3D('',#657,#529,#530);
#424=AXIS2_PLACEMENT_3D('',#658,#531,#532);
#425=AXIS2_PLACEMENT_3D('',#661,#534,#535);
#426=AXIS2_PLACEMENT_3D('',#663,#536,#537);
#427=AXIS2_PLACEMENT_3D('',#666,#539,#540);
#428=AXIS2_PLACEMENT_3D('',#667,#541,#542);
#429=AXIS2_PLACEMENT_3D('',#670,#543,#544);
#430=AXIS2_PLACEMENT_3D('',#671,#545,#546);
#431=AXIS2_PLACEMENT_3D('',#672,#547,#548);
#432=AXIS2_PLACEMENT_3D('',#673,#549,#550);
#433=AXIS2_PLACEMENT_3D('',#674,#551,#552);
#434=AXIS2_PLACEMENT_3D('',#675,#553,#554);
#435=AXIS2_PLACEMENT_3D('',#676,#555,#556);
#436=AXIS2_PLACEMENT_3D('',#677,#557,#558);
#437=AXIS2_PLACEMENT_3D('',#678,#559,#560);
#438=AXIS2_PLACEMENT_3D('',#679,#561,#562);
#439=AXIS2_PLACEMENT_3D('',#680,#563,#564);
#440=AXIS2_PLACEMENT_3D('',#681,#565,#566);
#441=AXIS2_PLACEMENT_3D('',#682,#567,#568);
#442=AXIS2_PLACEMENT_3D('',#683,#569,#570);
#443=AXIS2_PLACEMENT_3D('',#684,#571,#572);
#444=AXIS2_PLACEMENT_3D('',#685,#573,#574);
#445=AXIS2_PLACEMENT_3D('',#686,#575,#576);
#446=AXIS2_PLACEMENT_3D('',#687,#577,#578);
#447=AXIS2_PLACEMENT_3D('',#688,#579,#580);
#448=AXIS2_PLACEMENT_3D('',#689,#581,#582);
#449=DIRECTION('',(0.,0.,1.));
#450=DIRECTION('',(1.,0.,0.));
#451=DIRECTION('',(0.707106781186548,8.65956056235493E-17,0.707106781186547));
#452=DIRECTION('',(-1.,0.,0.));
#453=DIRECTION('',(0.,0.,1.));
#454=DIRECTION('',(0.707106781186548,0.,-0.707106781186547));
#455=DIRECTION('',(-1.,0.,0.));
#456=DIRECTION('',(0.,0.,1.));
#457=DIRECTION('',(1.,0.,0.));
#458=DIRECTION('',(-1.17260640462185E-17,0.,-1.));
#459=DIRECTION('',(1.,0.,0.));
#460=DIRECTION('',(-1.,0.,0.));
#461=DIRECTION('',(0.,0.,1.));
#462=DIRECTION('',(1.,0.,0.));
#463=DIRECTION('',(-1.,0.,0.));
#464=DIRECTION('',(0.,0.,1.));
#465=DIRECTION('',(-1.,0.,0.));
#466=DIRECTION('',(0.,0.,1.));
#467=DIRECTION('',(-1.,0.,0.));
#468=DIRECTION('',(0.,0.,1.));
#469=DIRECTION('',(-1.,0.,0.));
#470=DIRECTION('',(0.,0.,1.));
#471=DIRECTION('',(1.,0.,0.));
#472=DIRECTION('',(0.,0.,-1.));
#473=DIRECTION('',(1.,0.,0.));
#474=DIRECTION('',(-1.,0.,0.));
#475=DIRECTION('',(0.,0.,1.));
#476=DIRECTION('',(1.,0.,0.));
#477=DIRECTION('',(-1.,0.,0.));
#478=DIRECTION('',(0.,0.,1.));
#479=DIRECTION('',(-1.,0.,0.));
#480=DIRECTION('',(0.,0.,1.));
#481=DIRECTION('',(-1.,0.,0.));
#482=DIRECTION('',(0.,0.,1.));
#483=DIRECTION('',(-1.,0.,0.));
#484=DIRECTION('',(0.,0.,1.));
#485=DIRECTION('',(-1.,0.,0.));
#486=DIRECTION('',(0.,0.,1.));
#487=DIRECTION('',(1.,0.,0.));
#488=DIRECTION('',(-1.,0.,0.));
#489=DIRECTION('',(0.,0.,1.));
#490=DIRECTION('',(1.,0.,0.));
#491=DIRECTION('',(-1.,0.,0.));
#492=DIRECTION('',(0.,0.,1.));
#493=DIRECTION('',(-1.,0.,0.));
#494=DIRECTION('',(0.,0.,1.));
#495=DIRECTION('',(-1.,0.,0.));
#496=DIRECTION('',(0.,0.,1.));
#497=DIRECTION('',(-1.,0.,0.));
#498=DIRECTION('',(0.,0.,1.));
#499=DIRECTION('',(1.,0.,0.));
#500=DIRECTION('',(0.,0.,-1.));
#501=DIRECTION('',(1.,0.,0.));
#502=DIRECTION('',(-1.,0.,0.));
#503=DIRECTION('',(0.,0.,1.));
#504=DIRECTION('',(1.,0.,0.));
#505=DIRECTION('',(-1.,0.,0.));
#506=DIRECTION('',(0.,0.,1.));
#507=DIRECTION('',(0.96592582628907,-3.16961915143171E-17,0.258819045102516));
#508=DIRECTION('',(-1.,0.,0.));
#509=DIRECTION('',(0.,0.,1.));
#510=DIRECTION('',(0.96592582628907,0.,-0.258819045102516));
#511=DIRECTION('',(-1.,0.,0.));
#512=DIRECTION('',(1.32348458436703E-16,0.,1.));
#513=DIRECTION('',(1.,0.,0.));
#514=DIRECTION('',(-1.,0.,0.));
#515=DIRECTION('',(0.,0.,1.));
#516=DIRECTION('',(1.,0.,0.));
#517=DIRECTION('',(-1.,0.,0.));
#518=DIRECTION('',(0.,0.,1.));
#519=DIRECTION('',(0.707106781186548,-8.65956056235493E-17,0.707106781186547));
#520=DIRECTION('',(-1.,0.,0.));
#521=DIRECTION('',(0.,0.,1.));
#522=DIRECTION('',(0.707106781186548,0.,-0.707106781186547));
#523=DIRECTION('',(-1.,0.,0.));
#524=DIRECTION('',(4.46379498983988E-17,0.,1.));
#525=DIRECTION('',(-1.,0.,0.));
#526=DIRECTION('',(0.,0.,1.));
#527=DIRECTION('',(-1.,0.,0.));
#528=DIRECTION('',(0.,0.,1.));
#529=DIRECTION('',(-1.,0.,0.));
#530=DIRECTION('',(0.,0.,1.));
#531=DIRECTION('',(-1.,0.,0.));
#532=DIRECTION('',(0.,0.,1.));
#533=DIRECTION('',(1.,0.,0.));
#534=DIRECTION('',(-1.,0.,0.));
#535=DIRECTION('',(0.,0.,1.));
#536=DIRECTION('',(-1.,0.,0.));
#537=DIRECTION('',(0.,0.,1.));
#538=DIRECTION('',(1.,0.,0.));
#539=DIRECTION('',(-1.,0.,0.));
#540=DIRECTION('',(0.,0.,1.));
#541=DIRECTION('',(0.,1.22464679914735E-16,-1.));
#542=DIRECTION('',(0.,-1.,-1.22464679914735E-16));
#543=DIRECTION('',(0.,0.,1.));
#544=DIRECTION('',(-1.,0.,0.));
#545=DIRECTION('',(-1.,0.,0.));
#546=DIRECTION('',(0.,0.,1.));
#547=DIRECTION('',(0.,-6.12323399573677E-17,1.));
#548=DIRECTION('',(0.,-1.,0.));
#549=DIRECTION('',(-1.,0.,0.));
#550=DIRECTION('',(0.,0.,1.));
#551=DIRECTION('',(1.,0.,0.));
#552=DIRECTION('',(0.,0.,-1.));
#553=DIRECTION('',(-1.,0.,0.));
#554=DIRECTION('',(0.,0.,1.));
#555=DIRECTION('',(0.,-6.12323399573677E-17,1.));
#556=DIRECTION('',(0.,-1.,0.));
#557=DIRECTION('',(-1.,0.,0.));
#558=DIRECTION('',(0.,0.,1.));
#559=DIRECTION('',(-1.,0.,0.));
#560=DIRECTION('',(0.,0.,1.));
#561=DIRECTION('',(-1.,0.,0.));
#562=DIRECTION('',(4.46379498983988E-17,0.,1.));
#563=DIRECTION('',(-1.,0.,0.));
#564=DIRECTION('',(0.,0.,1.));
#565=DIRECTION('',(-1.,0.,0.));
#566=DIRECTION('',(0.,0.,1.));
#567=DIRECTION('',(-1.,0.,0.));
#568=DIRECTION('',(0.,0.,1.));
#569=DIRECTION('',(-1.,0.,0.));
#570=DIRECTION('',(1.32348458436703E-16,0.,1.));
#571=DIRECTION('',(-1.,0.,0.));
#572=DIRECTION('',(0.,0.,1.));
#573=DIRECTION('',(-1.,0.,0.));
#574=DIRECTION('',(0.,0.,1.));
#575=DIRECTION('',(-1.,0.,0.));
#576=DIRECTION('',(0.,0.,1.));
#577=DIRECTION('',(-1.,0.,0.));
#578=DIRECTION('',(0.,0.,1.));
#579=DIRECTION('',(-1.,0.,0.));
#580=DIRECTION('',(0.,0.,1.));
#581=DIRECTION('',(1.,0.,0.));
#582=DIRECTION('',(-1.17260640462185E-17,0.,-1.));
#583=CARTESIAN_POINT('',(0.,0.,0.));
#584=CARTESIAN_POINT('',(0.005,4.28626379701574E-18,0.035));
#585=CARTESIAN_POINT('',(1.04094977927525E-18,3.9801020972289E-18,0.03));
#586=CARTESIAN_POINT('',(0.005,0.,0.035));
#587=CARTESIAN_POINT('',(1.04094977927525E-18,0.,0.));
#588=CARTESIAN_POINT('',(1.04094977927525E-18,0.,-0.03));
#589=CARTESIAN_POINT('',(0.005,0.,-0.035));
#590=CARTESIAN_POINT('',(0.005,4.28626379701574E-18,-0.035));
#591=CARTESIAN_POINT('',(0.005,0.,0.));
#592=CARTESIAN_POINT('',(0.005,0.,0.));
#593=CARTESIAN_POINT('',(0.,4.28626379701574E-18,-0.035));
#594=CARTESIAN_POINT('',(0.08,4.28626379701574E-18,-0.035));
#595=CARTESIAN_POINT('',(0.08,0.,0.));
#596=CARTESIAN_POINT('',(0.08,0.,0.035));
#597=CARTESIAN_POINT('',(0.,0.,0.035));
#598=CARTESIAN_POINT('',(0.,0.,0.));
#599=CARTESIAN_POINT('',(0.08,0.,0.));
#600=CARTESIAN_POINT('',(0.08,0.,0.0425));
#601=CARTESIAN_POINT('',(0.08,5.20474889637625E-18,-0.0425));
#602=CARTESIAN_POINT('',(0.08,0.,0.));
#603=CARTESIAN_POINT('',(0.08,0.,0.));
#604=CARTESIAN_POINT('',(0.08,0.035,0.));
#605=CARTESIAN_POINT('',(0.,5.20474889637625E-18,-0.0425));
#606=CARTESIAN_POINT('',(0.09,5.20474889637625E-18,-0.0425));
#607=CARTESIAN_POINT('',(0.09,0.,0.));
#608=CARTESIAN_POINT('',(0.09,0.,0.0425));
#609=CARTESIAN_POINT('',(0.,0.,0.0425));
#610=CARTESIAN_POINT('',(0.,0.,0.));
#611=CARTESIAN_POINT('',(0.09,0.,0.));
#612=CARTESIAN_POINT('',(0.09,0.,0.0295));
#613=CARTESIAN_POINT('',(0.09,3.61270805748469E-18,-0.0295));
#614=CARTESIAN_POINT('',(0.09,0.,0.));
#615=CARTESIAN_POINT('',(0.09,0.,0.));
#616=CARTESIAN_POINT('',(0.09,0.0425,0.));
#617=CARTESIAN_POINT('',(0.,3.61270805748469E-18,-0.0295));
#618=CARTESIAN_POINT('',(0.11,3.61270805748469E-18,-0.0295));
#619=CARTESIAN_POINT('',(0.11,0.,0.));
#620=CARTESIAN_POINT('',(0.11,0.,0.0295));
#621=CARTESIAN_POINT('',(0.,0.,0.0295));
#622=CARTESIAN_POINT('',(0.,0.,0.));
#623=CARTESIAN_POINT('',(0.11,0.,0.));
#624=CARTESIAN_POINT('',(0.11,0.,0.032));
#625=CARTESIAN_POINT('',(0.11,3.91886975727153E-18,-0.032));
#626=CARTESIAN_POINT('',(0.11,0.,0.));
#627=CARTESIAN_POINT('',(0.11,0.,0.));
#628=CARTESIAN_POINT('',(0.11,0.0295,0.));
#629=CARTESIAN_POINT('',(0.,3.91886975727153E-18,-0.032));
#630=CARTESIAN_POINT('',(0.112,3.91886975727153E-18,-0.032));
#631=CARTESIAN_POINT('',(0.112,0.,0.));
#632=CARTESIAN_POINT('',(0.112,0.,0.032));
#633=CARTESIAN_POINT('',(0.,0.,0.032));
#634=CARTESIAN_POINT('',(0.,0.,0.));
#635=CARTESIAN_POINT('',(0.121330127018922,3.61270805748469E-18,-0.0295));
#636=CARTESIAN_POINT('',(0.121330127018922,3.61270805748469E-18,-0.0295));
#637=CARTESIAN_POINT('',(0.121330127018922,0.,0.));
#638=CARTESIAN_POINT('',(0.121330127018922,0.,0.0295));
#639=CARTESIAN_POINT('',(0.121330127018922,0.,0.0295));
#640=CARTESIAN_POINT('',(0.121330127018922,0.,0.));
#641=CARTESIAN_POINT('',(0.,3.61270805748469E-18,-0.0295));
#642=CARTESIAN_POINT('',(0.13,3.61270805748469E-18,-0.0295));
#643=CARTESIAN_POINT('',(0.13,0.,0.));
#644=CARTESIAN_POINT('',(0.13,0.,0.0295));
#645=CARTESIAN_POINT('',(0.,0.,0.0295));
#646=CARTESIAN_POINT('',(0.,0.,0.));
#647=CARTESIAN_POINT('',(0.132,3.36777869765522E-18,-0.0275));
#648=CARTESIAN_POINT('',(0.132,3.49024337756996E-18,-0.0275));
#649=CARTESIAN_POINT('',(0.132,0.,0.));
#650=CARTESIAN_POINT('',(0.132,0.,0.0275));
#651=CARTESIAN_POINT('',(0.132,0.,0.0275));
#652=CARTESIAN_POINT('',(0.132,0.,0.));
#653=CARTESIAN_POINT('',(0.132,0.,0.));
#654=CARTESIAN_POINT('',(0.132,0.,0.0209));
#655=CARTESIAN_POINT('',(0.132,2.55951181021797E-18,-0.0209));
#656=CARTESIAN_POINT('',(0.132,0.,0.));
#657=CARTESIAN_POINT('',(0.132,0.,0.));
#658=CARTESIAN_POINT('',(0.132,0.0275,0.));
#659=CARTESIAN_POINT('',(0.,2.55951181021797E-18,-0.0209));
#660=CARTESIAN_POINT('',(0.1501,2.55951181021797E-18,-0.0209));
#661=CARTESIAN_POINT('',(0.1501,0.,0.));
#662=CARTESIAN_POINT('',(0.1501,-0.0209,0.));
#663=CARTESIAN_POINT('',(0.1501,0.,0.));
#664=CARTESIAN_POINT('',(0.1501,0.,0.0209));
#665=CARTESIAN_POINT('',(0.,0.,0.0209));
#666=CARTESIAN_POINT('',(0.,0.,0.));
#667=CARTESIAN_POINT('',(0.1501,4.26851249010041E-18,0.));
#668=CARTESIAN_POINT('',(0.1501,0.0209,2.55951181021797E-18));
#669=CARTESIAN_POINT('',(0.171,2.98875658499143E-18,0.));
#670=CARTESIAN_POINT('',(0.1501,4.26851249010041E-18,0.));
#671=CARTESIAN_POINT('',(0.1501,0.,0.));
#672=CARTESIAN_POINT('',(0.1501,4.26851249010041E-18,0.));
#673=CARTESIAN_POINT('',(1.04094977927525E-18,0.,0.));
#674=CARTESIAN_POINT('',(5.20474889637625E-19,0.,0.));
#675=CARTESIAN_POINT('',(0.1501,0.,0.));
#676=CARTESIAN_POINT('',(0.1501,4.26851249010041E-18,0.));
#677=CARTESIAN_POINT('',(0.,0.,0.));
#678=CARTESIAN_POINT('',(0.13,0.,0.));
#679=CARTESIAN_POINT('',(0.132,0.,0.));
#680=CARTESIAN_POINT('',(0.121330127018922,0.,0.));
#681=CARTESIAN_POINT('',(0.,0.,0.));
#682=CARTESIAN_POINT('',(0.112,0.,0.));
#683=CARTESIAN_POINT('',(0.121330127018922,0.,0.));
#684=CARTESIAN_POINT('',(0.,0.,0.));
#685=CARTESIAN_POINT('',(0.,0.,0.));
#686=CARTESIAN_POINT('',(0.,0.,0.));
#687=CARTESIAN_POINT('',(0.005,0.,0.));
#688=CARTESIAN_POINT('',(0.,0.,0.));
#689=CARTESIAN_POINT('',(0.005,0.,0.));
#690=MECHANICAL_DESIGN_GEOMETRIC_PRESENTATION_REPRESENTATION('',(#24),#691);
#691=(
GEOMETRIC_REPRESENTATION_CONTEXT(3)
GLOBAL_UNCERTAINTY_ASSIGNED_CONTEXT((#692))
GLOBAL_UNIT_ASSIGNED_CONTEXT((#697,#694,#693))
REPRESENTATION_CONTEXT('mill-max-0926-0-15-20-76-14-11-0',
'TOP_LEVEL_ASSEMBLY_PART')
);
#692=UNCERTAINTY_MEASURE_WITH_UNIT(LENGTH_MEASURE(3.93700787401575E-5),
#697,'DISTANCE_ACCURACY_VALUE','Maximum Tolerance applied to model');
#693=(
NAMED_UNIT(*)
SI_UNIT($,.STERADIAN.)
SOLID_ANGLE_UNIT()
);
#694=(
CONVERSION_BASED_UNIT('DEGREE',#695)
NAMED_UNIT(#699)
PLANE_ANGLE_UNIT()
);
#695=PLANE_ANGLE_MEASURE_WITH_UNIT(PLANE_ANGLE_MEASURE(0.0174532925),#696);
#696=(
NAMED_UNIT(*)
PLANE_ANGLE_UNIT()
SI_UNIT($,.RADIAN.)
);
#697=(
CONVERSION_BASED_UNIT('INCH',#700)
LENGTH_UNIT()
NAMED_UNIT(#698)
);
#698=DIMENSIONAL_EXPONENTS(1.,0.,0.,0.,0.,0.,0.);
#699=DIMENSIONAL_EXPONENTS(0.,0.,0.,0.,0.,0.,0.);
#700=LENGTH_MEASURE_WITH_UNIT(LENGTH_MEASURE(25.4),#701);
#701=(
LENGTH_UNIT()
NAMED_UNIT(*)
SI_UNIT(.MILLI.,.METRE.)
);
ENDSEC;
END-ISO-10303-21;
