ISO-10303-21;
HEADER;
/* Generated by software containing ST-Developer
 * from STEP Tools, Inc. (www.steptools.com) 
 */
/* OPTION: using custom renumber hook */

FILE_DESCRIPTION(
/* description */ ('STEP AP242',
'CAx-IF Rec.Pracs.---Representation and Presentation of Product Manufa
cturing Information (PMI)---4.0---2014-10-13',
'CAx-IF Rec.Pracs.---3D Tessellated Geometry---0.4---2014-09-14','2;1'),

/* implementation_level */ '2;1');

FILE_NAME(
/* name */ '670f81e314e0fe18d3ddeec4',
/* time_stamp */ '2024-10-16T09:05:40Z',
/* author */ (''),
/* organization */ (''),
/* preprocessor_version */ 'ST-DEVELOPER v20',
/* originating_system */ '  ',
/* authorisation */ '  ');

FILE_SCHEMA (('AP242_MANAGED_MODEL_BASED_3D_ENGINEERING_MIM_LF { 1 0 10303 442 1 1 4 }'));
ENDSEC;

DATA;
#10=SHAPE_REPRESENTATION_RELATIONSHIP('','',#201,#11);
#11=ADVANCED_BREP_SHAPE_REPRESENTATION('',(#199),#373);
#12=TOROIDAL_SURFACE('',#218,0.0004,0.0003);
#13=TOROIDAL_SURFACE('',#219,0.0004,0.0003);
#14=TOROIDAL_SURFACE('',#221,0.0004,0.0003);
#15=TOROIDAL_SURFACE('',#222,0.0004,0.0003);
#16=TOROIDAL_SURFACE('',#224,0.00182089442972937,0.0003);
#17=TOROIDAL_SURFACE('',#228,0.00182089442972938,0.0003);
#18=B_SPLINE_CURVE_WITH_KNOTS('',3,(#300,#301,#302,#303,#304,#305,#306,
#307,#308,#309),.UNSPECIFIED.,.T.,.F.,(1,1,1,1,1,1,1,1,1,1,1,1,1,1),(-0.000729664942894409,
-0.000486443295262939,-0.00024322164763147,0.,0.000486443295262939,0.000729664942894409,
0.000972886590525878,0.00121610823815735,0.00145932988578882,0.00170255153342029,
0.00194577318105176,0.0024322164763147,0.00267543812394617,0.00291865977157764),
 .UNSPECIFIED.);
#19=B_SPLINE_CURVE_WITH_KNOTS('',3,(#311,#312,#313,#314,#315,#316,#317,
#318,#319,#320),.UNSPECIFIED.,.T.,.F.,(1,1,1,1,1,1,1,1,1,1,1,1,1,1),(-0.000729664942894409,
-0.000486443295262939,-0.00024322164763147,0.,0.000486443295262939,0.000729664942894409,
0.000972886590525878,0.00121610823815735,0.00145932988578882,0.00170255153342029,
0.00194577318105176,0.0024322164763147,0.00267543812394617,0.00291865977157764),
 .UNSPECIFIED.);
#20=B_SPLINE_CURVE_WITH_KNOTS('',3,(#347,#348,#349,#350,#351,#352,#353),
 .UNSPECIFIED.,.T.,.F.,(1,1,1,1,1,1,1,1,1,1,1),(-0.75,-0.5,-0.25,0.,0.25,
0.5,0.75,1.,1.25,1.5,1.75),.UNSPECIFIED.);
#21=B_SPLINE_CURVE_WITH_KNOTS('',3,(#360,#361,#362,#363,#364,#365,#366),
 .UNSPECIFIED.,.T.,.F.,(1,1,1,1,1,1,1,1,1,1,1),(-0.75,-0.5,-0.25,0.,0.25,
0.5,0.75,1.,1.25,1.5,1.75),.UNSPECIFIED.);
#22=CYLINDRICAL_SURFACE('',#207,0.00675);
#23=CYLINDRICAL_SURFACE('',#208,0.0003);
#24=CYLINDRICAL_SURFACE('',#210,0.0003);
#25=CYLINDRICAL_SURFACE('',#213,0.0003);
#26=CYLINDRICAL_SURFACE('',#215,0.0003);
#27=CYLINDRICAL_SURFACE('',#225,0.0003);
#28=CYLINDRICAL_SURFACE('',#229,0.0003);
#29=ORIENTED_EDGE('',*,*,#61,.F.);
#30=ORIENTED_EDGE('',*,*,#62,.T.);
#31=ORIENTED_EDGE('',*,*,#61,.T.);
#32=ORIENTED_EDGE('',*,*,#62,.F.);
#33=ORIENTED_EDGE('',*,*,#63,.F.);
#34=ORIENTED_EDGE('',*,*,#64,.F.);
#35=ORIENTED_EDGE('',*,*,#65,.T.);
#36=ORIENTED_EDGE('',*,*,#64,.T.);
#37=ORIENTED_EDGE('',*,*,#66,.T.);
#38=ORIENTED_EDGE('',*,*,#67,.F.);
#39=ORIENTED_EDGE('',*,*,#68,.T.);
#40=ORIENTED_EDGE('',*,*,#63,.T.);
#41=ORIENTED_EDGE('',*,*,#69,.T.);
#42=ORIENTED_EDGE('',*,*,#70,.F.);
#43=ORIENTED_EDGE('',*,*,#67,.T.);
#44=ORIENTED_EDGE('',*,*,#65,.F.);
#45=ORIENTED_EDGE('',*,*,#71,.F.);
#46=ORIENTED_EDGE('',*,*,#66,.F.);
#47=ORIENTED_EDGE('',*,*,#70,.T.);
#48=ORIENTED_EDGE('',*,*,#68,.F.);
#49=ORIENTED_EDGE('',*,*,#72,.F.);
#50=ORIENTED_EDGE('',*,*,#69,.F.);
#51=ORIENTED_EDGE('',*,*,#73,.F.);
#52=ORIENTED_EDGE('',*,*,#72,.T.);
#53=ORIENTED_EDGE('',*,*,#74,.F.);
#54=ORIENTED_EDGE('',*,*,#73,.T.);
#55=ORIENTED_EDGE('',*,*,#74,.T.);
#56=ORIENTED_EDGE('',*,*,#75,.F.);
#57=ORIENTED_EDGE('',*,*,#71,.T.);
#58=ORIENTED_EDGE('',*,*,#76,.F.);
#59=ORIENTED_EDGE('',*,*,#75,.T.);
#60=ORIENTED_EDGE('',*,*,#76,.T.);
#61=EDGE_CURVE('',#77,#77,#93,.T.);
#62=EDGE_CURVE('',#78,#78,#94,.T.);
#63=EDGE_CURVE('',#79,#79,#18,.T.);
#64=EDGE_CURVE('',#80,#80,#19,.T.);
#65=EDGE_CURVE('',#81,#81,#95,.T.);
#66=EDGE_CURVE('',#82,#82,#96,.T.);
#67=EDGE_CURVE('',#83,#83,#97,.T.);
#68=EDGE_CURVE('',#84,#84,#98,.T.);
#69=EDGE_CURVE('',#85,#85,#99,.T.);
#70=EDGE_CURVE('',#86,#86,#100,.T.);
#71=EDGE_CURVE('',#87,#87,#101,.F.);
#72=EDGE_CURVE('',#88,#88,#102,.F.);
#73=EDGE_CURVE('',#89,#89,#20,.T.);
#74=EDGE_CURVE('',#90,#90,#103,.F.);
#75=EDGE_CURVE('',#91,#91,#21,.T.);
#76=EDGE_CURVE('',#92,#92,#104,.F.);
#77=VERTEX_POINT('',#295);
#78=VERTEX_POINT('',#298);
#79=VERTEX_POINT('',#310);
#80=VERTEX_POINT('',#321);
#81=VERTEX_POINT('',#324);
#82=VERTEX_POINT('',#327);
#83=VERTEX_POINT('',#329);
#84=VERTEX_POINT('',#332);
#85=VERTEX_POINT('',#335);
#86=VERTEX_POINT('',#337);
#87=VERTEX_POINT('',#341);
#88=VERTEX_POINT('',#345);
#89=VERTEX_POINT('',#354);
#90=VERTEX_POINT('',#357);
#91=VERTEX_POINT('',#367);
#92=VERTEX_POINT('',#370);
#93=CIRCLE('',#204,0.00675);
#94=CIRCLE('',#206,0.00675);
#95=CIRCLE('',#209,0.0003);
#96=CIRCLE('',#211,0.0003);
#97=CIRCLE('',#212,0.0003);
#98=CIRCLE('',#214,0.0003);
#99=CIRCLE('',#216,0.0003);
#100=CIRCLE('',#217,0.0003);
#101=CIRCLE('',#220,0.0003);
#102=CIRCLE('',#223,0.0003);
#103=CIRCLE('',#226,0.0003);
#104=CIRCLE('',#230,0.0003);
#105=EDGE_LOOP('',(#29));
#106=EDGE_LOOP('',(#30));
#107=EDGE_LOOP('',(#31));
#108=EDGE_LOOP('',(#32));
#109=EDGE_LOOP('',(#33));
#110=EDGE_LOOP('',(#34));
#111=EDGE_LOOP('',(#35));
#112=EDGE_LOOP('',(#36));
#113=EDGE_LOOP('',(#37));
#114=EDGE_LOOP('',(#38));
#115=EDGE_LOOP('',(#39));
#116=EDGE_LOOP('',(#40));
#117=EDGE_LOOP('',(#41));
#118=EDGE_LOOP('',(#42));
#119=EDGE_LOOP('',(#43));
#120=EDGE_LOOP('',(#44));
#121=EDGE_LOOP('',(#45));
#122=EDGE_LOOP('',(#46));
#123=EDGE_LOOP('',(#47));
#124=EDGE_LOOP('',(#48));
#125=EDGE_LOOP('',(#49));
#126=EDGE_LOOP('',(#50));
#127=EDGE_LOOP('',(#51));
#128=EDGE_LOOP('',(#52));
#129=EDGE_LOOP('',(#53));
#130=EDGE_LOOP('',(#54));
#131=EDGE_LOOP('',(#55));
#132=EDGE_LOOP('',(#56));
#133=EDGE_LOOP('',(#57));
#134=EDGE_LOOP('',(#58));
#135=EDGE_LOOP('',(#59));
#136=EDGE_LOOP('',(#60));
#137=FACE_BOUND('',#105,.T.);
#138=FACE_BOUND('',#106,.T.);
#139=FACE_BOUND('',#107,.T.);
#140=FACE_BOUND('',#108,.T.);
#141=FACE_BOUND('',#109,.T.);
#142=FACE_BOUND('',#110,.T.);
#143=FACE_BOUND('',#111,.T.);
#144=FACE_BOUND('',#112,.T.);
#145=FACE_BOUND('',#113,.T.);
#146=FACE_BOUND('',#114,.T.);
#147=FACE_BOUND('',#115,.T.);
#148=FACE_BOUND('',#116,.T.);
#149=FACE_BOUND('',#117,.T.);
#150=FACE_BOUND('',#118,.T.);
#151=FACE_BOUND('',#119,.T.);
#152=FACE_BOUND('',#120,.T.);
#153=FACE_BOUND('',#121,.T.);
#154=FACE_BOUND('',#122,.T.);
#155=FACE_BOUND('',#123,.T.);
#156=FACE_BOUND('',#124,.T.);
#157=FACE_BOUND('',#125,.T.);
#158=FACE_BOUND('',#126,.T.);
#159=FACE_BOUND('',#127,.T.);
#160=FACE_BOUND('',#128,.T.);
#161=FACE_BOUND('',#129,.T.);
#162=FACE_BOUND('',#130,.T.);
#163=FACE_BOUND('',#131,.T.);
#164=FACE_BOUND('',#132,.T.);
#165=FACE_BOUND('',#133,.T.);
#166=FACE_BOUND('',#134,.T.);
#167=FACE_BOUND('',#135,.T.);
#168=FACE_BOUND('',#136,.T.);
#169=PLANE('',#203);
#170=PLANE('',#205);
#171=PLANE('',#227);
#172=PLANE('',#231);
#173=ADVANCED_FACE('',(#137),#169,.F.);
#174=ADVANCED_FACE('',(#138),#170,.T.);
#175=ADVANCED_FACE('',(#139,#140,#141,#142),#22,.T.);
#176=ADVANCED_FACE('',(#143,#144),#23,.T.);
#177=ADVANCED_FACE('',(#145,#146),#24,.T.);
#178=ADVANCED_FACE('',(#147,#148),#25,.T.);
#179=ADVANCED_FACE('',(#149,#150),#26,.T.);
#180=ADVANCED_FACE('',(#151,#152),#12,.T.);
#181=ADVANCED_FACE('',(#153,#154),#13,.T.);
#182=ADVANCED_FACE('',(#155,#156),#14,.T.);
#183=ADVANCED_FACE('',(#157,#158),#15,.T.);
#184=ADVANCED_FACE('',(#159,#160),#16,.T.);
#185=ADVANCED_FACE('',(#161,#162),#27,.T.);
#186=ADVANCED_FACE('',(#163),#171,.F.);
#187=ADVANCED_FACE('',(#164,#165),#17,.T.);
#188=ADVANCED_FACE('',(#166,#167),#28,.T.);
#189=ADVANCED_FACE('',(#168),#172,.F.);
#190=CLOSED_SHELL('',(#173,#174,#175,#176,#177,#178,#179,#180,#181,#182,
#183,#184,#185,#186,#187,#188,#189));
#191=STYLED_ITEM('',(#192),#199);
#192=PRESENTATION_STYLE_ASSIGNMENT((#193));
#193=SURFACE_STYLE_USAGE(.BOTH.,#194);
#194=SURFACE_SIDE_STYLE('',(#195));
#195=SURFACE_STYLE_FILL_AREA(#196);
#196=FILL_AREA_STYLE('',(#197));
#197=FILL_AREA_STYLE_COLOUR('',#198);
#198=COLOUR_RGB('',0.501960784313726,0.501960784313726,0.501960784313726);
#199=MANIFOLD_SOLID_BREP('PTCEL13RxxxxE pitch 5mm',#190);
#200=SHAPE_DEFINITION_REPRESENTATION(#378,#201);
#201=SHAPE_REPRESENTATION('PTCEL13RxxxxE pitch 5mm',(#202),#373);
#202=AXIS2_PLACEMENT_3D('',#292,#232,#233);
#203=AXIS2_PLACEMENT_3D('',#293,#234,#235);
#204=AXIS2_PLACEMENT_3D('',#294,#236,#237);
#205=AXIS2_PLACEMENT_3D('',#296,#238,#239);
#206=AXIS2_PLACEMENT_3D('',#297,#240,#241);
#207=AXIS2_PLACEMENT_3D('',#299,#242,#243);
#208=AXIS2_PLACEMENT_3D('',#322,#244,#245);
#209=AXIS2_PLACEMENT_3D('',#323,#246,#247);
#210=AXIS2_PLACEMENT_3D('',#325,#248,#249);
#211=AXIS2_PLACEMENT_3D('',#326,#250,#251);
#212=AXIS2_PLACEMENT_3D('',#328,#252,#253);
#213=AXIS2_PLACEMENT_3D('',#330,#254,#255);
#214=AXIS2_PLACEMENT_3D('',#331,#256,#257);
#215=AXIS2_PLACEMENT_3D('',#333,#258,#259);
#216=AXIS2_PLACEMENT_3D('',#334,#260,#261);
#217=AXIS2_PLACEMENT_3D('',#336,#262,#263);
#218=AXIS2_PLACEMENT_3D('',#338,#264,#265);
#219=AXIS2_PLACEMENT_3D('',#339,#266,#267);
#220=AXIS2_PLACEMENT_3D('',#340,#268,#269);
#221=AXIS2_PLACEMENT_3D('',#342,#270,#271);
#222=AXIS2_PLACEMENT_3D('',#343,#272,#273);
#223=AXIS2_PLACEMENT_3D('',#344,#274,#275);
#224=AXIS2_PLACEMENT_3D('',#346,#276,#277);
#225=AXIS2_PLACEMENT_3D('',#355,#278,#279);
#226=AXIS2_PLACEMENT_3D('',#356,#280,#281);
#227=AXIS2_PLACEMENT_3D('',#358,#282,#283);
#228=AXIS2_PLACEMENT_3D('',#359,#284,#285);
#229=AXIS2_PLACEMENT_3D('',#368,#286,#287);
#230=AXIS2_PLACEMENT_3D('',#369,#288,#289);
#231=AXIS2_PLACEMENT_3D('',#371,#290,#291);
#232=DIRECTION('',(0.,0.,1.));
#233=DIRECTION('',(1.,0.,0.));
#234=DIRECTION('',(0.,0.,1.));
#235=DIRECTION('',(1.,0.,0.));
#236=DIRECTION('',(0.,0.,1.));
#237=DIRECTION('',(1.,0.,0.));
#238=DIRECTION('',(0.,0.,1.));
#239=DIRECTION('',(1.,0.,0.));
#240=DIRECTION('',(0.,0.,1.));
#241=DIRECTION('',(1.,0.,0.));
#242=DIRECTION('',(0.,0.,-1.));
#243=DIRECTION('',(-1.,0.,0.));
#244=DIRECTION('',(0.,-1.,-5.94104594734555E-17));
#245=DIRECTION('',(0.,0.,-1.));
#246=DIRECTION('',(0.,1.,0.));
#247=DIRECTION('',(0.,0.,1.));
#248=DIRECTION('',(0.,-0.173648177666927,-0.984807753012209));
#249=DIRECTION('',(0.,0.984807753012209,-0.173648177666927));
#250=DIRECTION('',(0.,0.173648177666927,0.984807753012209));
#251=DIRECTION('',(0.,-0.984807753012209,0.173648177666927));
#252=DIRECTION('',(0.,0.173648177666927,0.984807753012209));
#253=DIRECTION('',(0.,-0.984807753012209,0.173648177666927));
#254=DIRECTION('',(0.,-1.,5.94104594734555E-17));
#255=DIRECTION('',(0.,0.,1.));
#256=DIRECTION('',(0.,1.,0.));
#257=DIRECTION('',(0.,0.,-1.));
#258=DIRECTION('',(0.,-0.173648177666927,0.984807753012209));
#259=DIRECTION('',(0.,0.984807753012209,0.173648177666927));
#260=DIRECTION('',(0.,0.173648177666927,-0.984807753012209));
#261=DIRECTION('',(0.,-0.984807753012209,-0.173648177666927));
#262=DIRECTION('',(0.,0.173648177666927,-0.984807753012209));
#263=DIRECTION('',(0.,-0.984807753012209,-0.173648177666927));
#264=DIRECTION('',(1.,0.,0.));
#265=DIRECTION('',(0.,0.,-1.));
#266=DIRECTION('',(-1.,0.,0.));
#267=DIRECTION('',(0.,0.,1.));
#268=DIRECTION('',(0.,1.,0.));
#269=DIRECTION('',(0.,0.,1.));
#270=DIRECTION('',(-1.,0.,0.));
#271=DIRECTION('',(0.,0.,1.));
#272=DIRECTION('',(1.,0.,0.));
#273=DIRECTION('',(0.,0.,-1.));
#274=DIRECTION('',(0.,1.,0.));
#275=DIRECTION('',(0.,0.,-1.));
#276=DIRECTION('',(-1.,0.,0.));
#277=DIRECTION('',(0.,0.,1.));
#278=DIRECTION('',(0.,0.,1.));
#279=DIRECTION('',(1.,0.,0.));
#280=DIRECTION('',(0.,-6.24500451351651E-17,-1.));
#281=DIRECTION('',(0.,-1.,6.07153216591883E-17));
#282=DIRECTION('',(0.,-6.24500451351651E-17,-1.));
#283=DIRECTION('',(0.,1.,-6.07153216591883E-17));
#284=DIRECTION('',(-1.,0.,0.));
#285=DIRECTION('',(0.,0.,1.));
#286=DIRECTION('',(0.,0.,1.));
#287=DIRECTION('',(1.,0.,0.));
#288=DIRECTION('',(0.,-6.24500451351651E-17,-1.));
#289=DIRECTION('',(0.,1.,-6.07153216591883E-17));
#290=DIRECTION('',(0.,-6.24500451351651E-17,-1.));
#291=DIRECTION('',(0.,1.,-6.07153216591883E-17));
#292=CARTESIAN_POINT('',(0.,0.,0.));
#293=CARTESIAN_POINT('',(0.,0.01025,-0.0035));
#294=CARTESIAN_POINT('',(0.,0.01025,-0.0035));
#295=CARTESIAN_POINT('',(0.00675,0.01025,-0.0035));
#296=CARTESIAN_POINT('',(0.,0.01025,0.0035));
#297=CARTESIAN_POINT('',(0.,0.01025,0.0035));
#298=CARTESIAN_POINT('',(0.00675,0.01025,0.0035));
#299=CARTESIAN_POINT('',(0.,0.01025,0.0035));
#300=CARTESIAN_POINT('',(-0.00226949686849038,0.00389205889377668,-0.00276034490129584));
#301=CARTESIAN_POINT('',(-0.00257867936248449,0.00400732569817845,-0.00263554123665577));
#302=CARTESIAN_POINT('',(-0.00287125698864708,0.00414086731373743,-0.00290983173822624));
#303=CARTESIAN_POINT('',(-0.00273058789009062,0.004076037770167,-0.00324015879632002));
#304=CARTESIAN_POINT('',(-0.00250523044777263,0.00398017954021499,-0.00332879911052354));
#305=CARTESIAN_POINT('',(-0.00227393747053335,0.00389359187846435,-0.00324446487550542));
#306=CARTESIAN_POINT('',(-0.00216416074634595,0.00385646646491344,-0.00300296860099301));
#307=CARTESIAN_POINT('',(-0.00226949686849038,0.00389205889377668,-0.00276034490129584));
#308=CARTESIAN_POINT('',(-0.00257867936248449,0.00400732569817845,-0.00263554123665577));
#309=CARTESIAN_POINT('',(-0.00287125698864708,0.00414086731373743,-0.00290983173822624));
#310=CARTESIAN_POINT('',(-0.0025,0.00398003189800778,-0.0027));
#311=CARTESIAN_POINT('',(0.00226949686849038,0.00389205889377668,0.00276034490129584));
#312=CARTESIAN_POINT('',(0.00257867936248449,0.00400732569817845,0.00263554123665577));
#313=CARTESIAN_POINT('',(0.00287125698864708,0.00414086731373743,0.00290983173822624));
#314=CARTESIAN_POINT('',(0.00273058789009062,0.004076037770167,0.00324015879632002));
#315=CARTESIAN_POINT('',(0.00250523044777263,0.00398017954021499,0.00332879911052354));
#316=CARTESIAN_POINT('',(0.00227393747053335,0.00389359187846435,0.00324446487550542));
#317=CARTESIAN_POINT('',(0.00216416074634595,0.00385646646491344,0.00300296860099301));
#318=CARTESIAN_POINT('',(0.00226949686849038,0.00389205889377668,0.00276034490129584));
#319=CARTESIAN_POINT('',(0.00257867936248449,0.00400732569817845,0.00263554123665577));
#320=CARTESIAN_POINT('',(0.00287125698864708,0.00414086731373743,0.00290983173822624));
#321=CARTESIAN_POINT('',(0.0025,0.00398003189800778,0.0027));
#322=CARTESIAN_POINT('',(0.0025,0.0085,0.003));
#323=CARTESIAN_POINT('',(0.0025,0.00120026064706721,0.003));
#324=CARTESIAN_POINT('',(0.0025,0.00120026064706721,0.0033));
#325=CARTESIAN_POINT('',(0.0025,0.000806337545862325,0.00266945927106677));
#326=CARTESIAN_POINT('',(0.0025,0.000393923101204883,0.00033054072893323));
#327=CARTESIAN_POINT('',(0.0025,9.84807753012208E-5,0.000382635182233308));
#328=CARTESIAN_POINT('',(0.0025,0.000806337545862324,0.00266945927106677));
#329=CARTESIAN_POINT('',(0.0025,0.000510895219958661,0.00272155372436685));
#330=CARTESIAN_POINT('',(-0.0025,0.0085,-0.003));
#331=CARTESIAN_POINT('',(-0.0025,0.00120026064706721,-0.003));
#332=CARTESIAN_POINT('',(-0.0025,0.00120026064706721,-0.0033));
#333=CARTESIAN_POINT('',(-0.0025,0.000806337545862325,-0.00266945927106677));
#334=CARTESIAN_POINT('',(-0.0025,0.000393923101204883,-0.00033054072893323));
#335=CARTESIAN_POINT('',(-0.0025,9.84807753012208E-5,-0.000382635182233308));
#336=CARTESIAN_POINT('',(-0.0025,0.000806337545862324,-0.00266945927106677));
#337=CARTESIAN_POINT('',(-0.0025,0.000510895219958661,-0.00272155372436685));
#338=CARTESIAN_POINT('',(0.0025,0.00120026064706721,0.0026));
#339=CARTESIAN_POINT('',(0.0025,-5.42101086242752E-20,0.0004));
#340=CARTESIAN_POINT('',(0.0025,0.,-1.7347234759768E-18));
#341=CARTESIAN_POINT('',(0.0025,0.,0.000299999999999998));
#342=CARTESIAN_POINT('',(-0.0025,0.00120026064706721,-0.0026));
#343=CARTESIAN_POINT('',(-0.0025,-5.42101086242752E-20,-0.0004));
#344=CARTESIAN_POINT('',(-0.0025,0.,1.7347234759768E-18));
#345=CARTESIAN_POINT('',(-0.0025,0.,-0.000299999999999998));
#346=CARTESIAN_POINT('',(-0.0025,0.,0.00182089442972937));
#347=CARTESIAN_POINT('',(-0.00295,-0.001820795587264,0.00180192198604344));
#348=CARTESIAN_POINT('',(-0.0025,-0.002270795587264,0.00180192198604344));
#349=CARTESIAN_POINT('',(-0.00205,-0.001820795587264,0.00180192198604344));
#350=CARTESIAN_POINT('',(-0.0025,-0.001370795587264,0.00180192198604344));
#351=CARTESIAN_POINT('',(-0.00295,-0.001820795587264,0.00180192198604344));
#352=CARTESIAN_POINT('',(-0.0025,-0.002270795587264,0.00180192198604344));
#353=CARTESIAN_POINT('',(-0.00205,-0.001820795587264,0.00180192198604344));
#354=CARTESIAN_POINT('',(-0.0025,-0.002120795587264,0.00180192198604344));
#355=CARTESIAN_POINT('',(-0.0025,-0.001820795587264,0.00180192198604344));
#356=CARTESIAN_POINT('',(-0.0025,-0.001820795587264,0.00618920954689384));
#357=CARTESIAN_POINT('',(-0.0025,-0.002120795587264,0.00618920954689384));
#358=CARTESIAN_POINT('',(-0.0025,-0.001820795587264,0.00618920954689384));
#359=CARTESIAN_POINT('',(0.0025,0.,0.00182089442972937));
#360=CARTESIAN_POINT('',(0.00295,-0.001820795587264,0.00180192198604344));
#361=CARTESIAN_POINT('',(0.0025,-0.001370795587264,0.00180192198604344));
#362=CARTESIAN_POINT('',(0.00205,-0.001820795587264,0.00180192198604344));
#363=CARTESIAN_POINT('',(0.0025,-0.002270795587264,0.00180192198604344));
#364=CARTESIAN_POINT('',(0.00295,-0.001820795587264,0.00180192198604344));
#365=CARTESIAN_POINT('',(0.0025,-0.001370795587264,0.00180192198604344));
#366=CARTESIAN_POINT('',(0.00205,-0.001820795587264,0.00180192198604344));
#367=CARTESIAN_POINT('',(0.0025,-0.001520795587264,0.00180192198604344));
#368=CARTESIAN_POINT('',(0.0025,-0.001820795587264,0.00180192198604344));
#369=CARTESIAN_POINT('',(0.0025,-0.001820795587264,0.00618920954689384));
#370=CARTESIAN_POINT('',(0.0025,-0.001520795587264,0.00618920954689384));
#371=CARTESIAN_POINT('',(0.0025,-0.001820795587264,0.00618920954689384));
#372=MECHANICAL_DESIGN_GEOMETRIC_PRESENTATION_REPRESENTATION('',(#191),
#373);
#373=(
GEOMETRIC_REPRESENTATION_CONTEXT(3)
GLOBAL_UNCERTAINTY_ASSIGNED_CONTEXT((#374))
GLOBAL_UNIT_ASSIGNED_CONTEXT((#377,#376,#375))
REPRESENTATION_CONTEXT('PTCEL13RxxxxE pitch 5mm',
'TOP_LEVEL_ASSEMBLY_PART')
);
#374=UNCERTAINTY_MEASURE_WITH_UNIT(LENGTH_MEASURE(5.E-6),#377,
'DISTANCE_ACCURACY_VALUE','Maximum Tolerance applied to model');
#375=(
NAMED_UNIT(*)
SI_UNIT($,.STERADIAN.)
SOLID_ANGLE_UNIT()
);
#376=(
NAMED_UNIT(*)
PLANE_ANGLE_UNIT()
SI_UNIT($,.RADIAN.)
);
#377=(
LENGTH_UNIT()
NAMED_UNIT(*)
SI_UNIT($,.METRE.)
);
#378=PRODUCT_DEFINITION_SHAPE('','',#379);
#379=PRODUCT_DEFINITION('','',#381,#380);
#380=PRODUCT_DEFINITION_CONTEXT('',#387,'design');
#381=PRODUCT_DEFINITION_FORMATION_WITH_SPECIFIED_SOURCE('','',#383,
 .NOT_KNOWN.);
#382=PRODUCT_RELATED_PRODUCT_CATEGORY('','',(#383));
#383=PRODUCT('PTCEL13RxxxxE pitch 5mm','PTCEL13RxxxxE pitch 5mm',
'PTCEL13RxxxxE pitch 5mm',(#385));
#384=PRODUCT_CATEGORY('','');
#385=PRODUCT_CONTEXT('',#387,'mechanical');
#386=APPLICATION_PROTOCOL_DEFINITION('international standard',
'ap242_managed_model_based_3d_engineering',2011,#387);
#387=APPLICATION_CONTEXT('managed model based 3d engineering');
ENDSEC;
END-ISO-10303-21;
