ISO-10303-21;
HEADER;
/* Generated by software containing ST-Developer
 * from STEP Tools, Inc. (www.steptools.com) 
 */

FILE_DESCRIPTION(
/* description */ (''),
/* implementation_level */ '2;1');

FILE_NAME(
/* name */ 'Hamza v1.step',
/* time_stamp */ '2024-02-21T17:39:21+01:00',
/* author */ (''),
/* organization */ (''),
/* preprocessor_version */ 'ST-DEVELOPER v20',
/* originating_system */ 'Autodesk Translation Framework v12.20.1.177',

/* authorisation */ '');

FILE_SCHEMA (('AUTOMOTIVE_DESIGN { 1 0 10303 214 3 1 1 }'));
ENDSEC;

DATA;
#10=MECHANICAL_DESIGN_GEOMETRIC_PRESENTATION_REPRESENTATION('',(#13),#315);
#11=SHAPE_REPRESENTATION_RELATIONSHIP('SRR','None',#322,#12);
#12=ADVANCED_BREP_SHAPE_REPRESENTATION('',(#14),#314);
#13=STYLED_ITEM('',(#331),#14);
#14=MANIFOLD_SOLID_BREP('K\X\F6rper1',#191);
#15=FACE_OUTER_BOUND('',#25,.T.);
#16=FACE_OUTER_BOUND('',#26,.T.);
#17=FACE_OUTER_BOUND('',#27,.T.);
#18=FACE_OUTER_BOUND('',#28,.T.);
#19=FACE_OUTER_BOUND('',#29,.T.);
#20=FACE_OUTER_BOUND('',#30,.T.);
#21=FACE_OUTER_BOUND('',#31,.T.);
#22=FACE_OUTER_BOUND('',#32,.T.);
#23=FACE_OUTER_BOUND('',#33,.T.);
#24=FACE_OUTER_BOUND('',#34,.T.);
#25=EDGE_LOOP('',(#123,#124,#125,#126));
#26=EDGE_LOOP('',(#127,#128,#129,#130));
#27=EDGE_LOOP('',(#131,#132,#133,#134));
#28=EDGE_LOOP('',(#135,#136,#137,#138));
#29=EDGE_LOOP('',(#139,#140,#141,#142));
#30=EDGE_LOOP('',(#143,#144,#145,#146));
#31=EDGE_LOOP('',(#147,#148,#149,#150,#151,#152,#153,#154));
#32=EDGE_LOOP('',(#155,#156,#157,#158));
#33=EDGE_LOOP('',(#159,#160,#161,#162,#163,#164,#165,#166));
#34=EDGE_LOOP('',(#167,#168,#169,#170));
#35=LINE('',#265,#59);
#36=LINE('',#267,#60);
#37=LINE('',#269,#61);
#38=LINE('',#270,#62);
#39=LINE('',#274,#63);
#40=LINE('',#276,#64);
#41=LINE('',#278,#65);
#42=LINE('',#279,#66);
#43=LINE('',#281,#67);
#44=LINE('',#282,#68);
#45=LINE('',#286,#69);
#46=LINE('',#288,#70);
#47=LINE('',#290,#71);
#48=LINE('',#291,#72);
#49=LINE('',#294,#73);
#50=LINE('',#296,#74);
#51=LINE('',#297,#75);
#52=LINE('',#300,#76);
#53=LINE('',#302,#77);
#54=LINE('',#303,#78);
#55=LINE('',#305,#79);
#56=LINE('',#306,#80);
#57=LINE('',#308,#81);
#58=LINE('',#310,#82);
#59=VECTOR('',#219,10.);
#60=VECTOR('',#220,10.);
#61=VECTOR('',#221,10.);
#62=VECTOR('',#222,10.);
#63=VECTOR('',#225,10.);
#64=VECTOR('',#226,10.);
#65=VECTOR('',#227,10.);
#66=VECTOR('',#228,10.);
#67=VECTOR('',#231,10.);
#68=VECTOR('',#232,10.);
#69=VECTOR('',#235,10.);
#70=VECTOR('',#236,10.);
#71=VECTOR('',#237,10.);
#72=VECTOR('',#238,10.);
#73=VECTOR('',#241,10.);
#74=VECTOR('',#242,10.);
#75=VECTOR('',#243,10.);
#76=VECTOR('',#246,10.);
#77=VECTOR('',#247,10.);
#78=VECTOR('',#248,10.);
#79=VECTOR('',#251,10.);
#80=VECTOR('',#252,10.);
#81=VECTOR('',#255,10.);
#82=VECTOR('',#258,10.);
#83=VERTEX_POINT('',#263);
#84=VERTEX_POINT('',#264);
#85=VERTEX_POINT('',#266);
#86=VERTEX_POINT('',#268);
#87=VERTEX_POINT('',#272);
#88=VERTEX_POINT('',#273);
#89=VERTEX_POINT('',#275);
#90=VERTEX_POINT('',#277);
#91=VERTEX_POINT('',#284);
#92=VERTEX_POINT('',#285);
#93=VERTEX_POINT('',#287);
#94=VERTEX_POINT('',#289);
#95=VERTEX_POINT('',#293);
#96=VERTEX_POINT('',#295);
#97=VERTEX_POINT('',#299);
#98=VERTEX_POINT('',#301);
#99=EDGE_CURVE('',#83,#84,#35,.T.);
#100=EDGE_CURVE('',#83,#85,#36,.T.);
#101=EDGE_CURVE('',#86,#85,#37,.T.);
#102=EDGE_CURVE('',#84,#86,#38,.T.);
#103=EDGE_CURVE('',#87,#88,#39,.T.);
#104=EDGE_CURVE('',#87,#89,#40,.T.);
#105=EDGE_CURVE('',#90,#89,#41,.T.);
#106=EDGE_CURVE('',#88,#90,#42,.T.);
#107=EDGE_CURVE('',#85,#90,#43,.T.);
#108=EDGE_CURVE('',#89,#86,#44,.T.);
#109=EDGE_CURVE('',#91,#92,#45,.T.);
#110=EDGE_CURVE('',#92,#93,#46,.T.);
#111=EDGE_CURVE('',#93,#94,#47,.T.);
#112=EDGE_CURVE('',#94,#91,#48,.T.);
#113=EDGE_CURVE('',#88,#95,#49,.T.);
#114=EDGE_CURVE('',#95,#96,#50,.T.);
#115=EDGE_CURVE('',#96,#87,#51,.T.);
#116=EDGE_CURVE('',#92,#97,#52,.T.);
#117=EDGE_CURVE('',#98,#97,#53,.T.);
#118=EDGE_CURVE('',#93,#98,#54,.T.);
#119=EDGE_CURVE('',#84,#98,#55,.T.);
#120=EDGE_CURVE('',#94,#96,#56,.T.);
#121=EDGE_CURVE('',#91,#95,#57,.T.);
#122=EDGE_CURVE('',#97,#83,#58,.T.);
#123=ORIENTED_EDGE('',*,*,#99,.F.);
#124=ORIENTED_EDGE('',*,*,#100,.T.);
#125=ORIENTED_EDGE('',*,*,#101,.F.);
#126=ORIENTED_EDGE('',*,*,#102,.F.);
#127=ORIENTED_EDGE('',*,*,#103,.F.);
#128=ORIENTED_EDGE('',*,*,#104,.T.);
#129=ORIENTED_EDGE('',*,*,#105,.F.);
#130=ORIENTED_EDGE('',*,*,#106,.F.);
#131=ORIENTED_EDGE('',*,*,#101,.T.);
#132=ORIENTED_EDGE('',*,*,#107,.T.);
#133=ORIENTED_EDGE('',*,*,#105,.T.);
#134=ORIENTED_EDGE('',*,*,#108,.T.);
#135=ORIENTED_EDGE('',*,*,#109,.T.);
#136=ORIENTED_EDGE('',*,*,#110,.T.);
#137=ORIENTED_EDGE('',*,*,#111,.T.);
#138=ORIENTED_EDGE('',*,*,#112,.T.);
#139=ORIENTED_EDGE('',*,*,#103,.T.);
#140=ORIENTED_EDGE('',*,*,#113,.T.);
#141=ORIENTED_EDGE('',*,*,#114,.T.);
#142=ORIENTED_EDGE('',*,*,#115,.T.);
#143=ORIENTED_EDGE('',*,*,#110,.F.);
#144=ORIENTED_EDGE('',*,*,#116,.T.);
#145=ORIENTED_EDGE('',*,*,#117,.F.);
#146=ORIENTED_EDGE('',*,*,#118,.F.);
#147=ORIENTED_EDGE('',*,*,#111,.F.);
#148=ORIENTED_EDGE('',*,*,#118,.T.);
#149=ORIENTED_EDGE('',*,*,#119,.F.);
#150=ORIENTED_EDGE('',*,*,#102,.T.);
#151=ORIENTED_EDGE('',*,*,#108,.F.);
#152=ORIENTED_EDGE('',*,*,#104,.F.);
#153=ORIENTED_EDGE('',*,*,#115,.F.);
#154=ORIENTED_EDGE('',*,*,#120,.F.);
#155=ORIENTED_EDGE('',*,*,#112,.F.);
#156=ORIENTED_EDGE('',*,*,#120,.T.);
#157=ORIENTED_EDGE('',*,*,#114,.F.);
#158=ORIENTED_EDGE('',*,*,#121,.F.);
#159=ORIENTED_EDGE('',*,*,#122,.F.);
#160=ORIENTED_EDGE('',*,*,#116,.F.);
#161=ORIENTED_EDGE('',*,*,#109,.F.);
#162=ORIENTED_EDGE('',*,*,#121,.T.);
#163=ORIENTED_EDGE('',*,*,#113,.F.);
#164=ORIENTED_EDGE('',*,*,#106,.T.);
#165=ORIENTED_EDGE('',*,*,#107,.F.);
#166=ORIENTED_EDGE('',*,*,#100,.F.);
#167=ORIENTED_EDGE('',*,*,#99,.T.);
#168=ORIENTED_EDGE('',*,*,#119,.T.);
#169=ORIENTED_EDGE('',*,*,#117,.T.);
#170=ORIENTED_EDGE('',*,*,#122,.T.);
#171=PLANE('',#205);
#172=PLANE('',#206);
#173=PLANE('',#207);
#174=PLANE('',#208);
#175=PLANE('',#209);
#176=PLANE('',#210);
#177=PLANE('',#211);
#178=PLANE('',#212);
#179=PLANE('',#213);
#180=PLANE('',#214);
#181=ADVANCED_FACE('',(#15),#171,.T.);
#182=ADVANCED_FACE('',(#16),#172,.T.);
#183=ADVANCED_FACE('',(#17),#173,.T.);
#184=ADVANCED_FACE('',(#18),#174,.F.);
#185=ADVANCED_FACE('',(#19),#175,.T.);
#186=ADVANCED_FACE('',(#20),#176,.T.);
#187=ADVANCED_FACE('',(#21),#177,.T.);
#188=ADVANCED_FACE('',(#22),#178,.T.);
#189=ADVANCED_FACE('',(#23),#179,.T.);
#190=ADVANCED_FACE('',(#24),#180,.T.);
#191=CLOSED_SHELL('',(#181,#182,#183,#184,#185,#186,#187,#188,#189,#190));
#192=DERIVED_UNIT_ELEMENT(#194,1.);
#193=DERIVED_UNIT_ELEMENT(#317,-3.);
#194=(
MASS_UNIT()
NAMED_UNIT(*)
SI_UNIT(.KILO.,.GRAM.)
);
#195=DERIVED_UNIT((#192,#193));
#196=MEASURE_REPRESENTATION_ITEM('density measure',
POSITIVE_RATIO_MEASURE(7850.),#195);
#197=PROPERTY_DEFINITION_REPRESENTATION(#202,#199);
#198=PROPERTY_DEFINITION_REPRESENTATION(#203,#200);
#199=REPRESENTATION('material name',(#201),#314);
#200=REPRESENTATION('density',(#196),#314);
#201=DESCRIPTIVE_REPRESENTATION_ITEM('Stahl','Stahl');
#202=PROPERTY_DEFINITION('material property','material name',#324);
#203=PROPERTY_DEFINITION('material property','density of part',#324);
#204=AXIS2_PLACEMENT_3D('',#261,#215,#216);
#205=AXIS2_PLACEMENT_3D('',#262,#217,#218);
#206=AXIS2_PLACEMENT_3D('',#271,#223,#224);
#207=AXIS2_PLACEMENT_3D('',#280,#229,#230);
#208=AXIS2_PLACEMENT_3D('',#283,#233,#234);
#209=AXIS2_PLACEMENT_3D('',#292,#239,#240);
#210=AXIS2_PLACEMENT_3D('',#298,#244,#245);
#211=AXIS2_PLACEMENT_3D('',#304,#249,#250);
#212=AXIS2_PLACEMENT_3D('',#307,#253,#254);
#213=AXIS2_PLACEMENT_3D('',#309,#256,#257);
#214=AXIS2_PLACEMENT_3D('',#311,#259,#260);
#215=DIRECTION('axis',(0.,0.,1.));
#216=DIRECTION('refdir',(1.,0.,0.));
#217=DIRECTION('center_axis',(0.,0.,1.));
#218=DIRECTION('ref_axis',(1.,0.,0.));
#219=DIRECTION('',(-1.,0.,0.));
#220=DIRECTION('',(0.,1.,0.));
#221=DIRECTION('',(1.,0.,0.));
#222=DIRECTION('',(0.,1.,0.));
#223=DIRECTION('center_axis',(-6.16790569236198E-17,0.,-1.));
#224=DIRECTION('ref_axis',(-1.,0.,6.16790569236198E-17));
#225=DIRECTION('',(1.,0.,-6.16790569236198E-17));
#226=DIRECTION('',(0.,1.,0.));
#227=DIRECTION('',(-1.,0.,6.16790569236198E-17));
#228=DIRECTION('',(0.,1.,0.));
#229=DIRECTION('center_axis',(0.,1.,0.));
#230=DIRECTION('ref_axis',(0.,0.,1.));
#231=DIRECTION('',(-3.70074341541719E-16,0.,-1.));
#232=DIRECTION('',(0.,0.,1.));
#233=DIRECTION('center_axis',(0.,1.,0.));
#234=DIRECTION('ref_axis',(1.,0.,0.));
#235=DIRECTION('',(-2.46716227694479E-16,0.,1.));
#236=DIRECTION('',(-1.,0.,0.));
#237=DIRECTION('',(-8.63506796930677E-16,0.,-1.));
#238=DIRECTION('',(1.,0.,0.));
#239=DIRECTION('center_axis',(0.,1.,0.));
#240=DIRECTION('ref_axis',(0.,0.,1.));
#241=DIRECTION('',(2.46716227694479E-16,0.,-1.));
#242=DIRECTION('',(-1.,0.,0.));
#243=DIRECTION('',(8.63506796930677E-16,0.,1.));
#244=DIRECTION('center_axis',(0.,0.,1.));
#245=DIRECTION('ref_axis',(1.,0.,0.));
#246=DIRECTION('',(0.,1.,0.));
#247=DIRECTION('',(1.,0.,0.));
#248=DIRECTION('',(0.,1.,0.));
#249=DIRECTION('center_axis',(-1.,0.,8.63506796930677E-16));
#250=DIRECTION('ref_axis',(8.63506796930677E-16,0.,1.));
#251=DIRECTION('',(8.63506796930677E-16,0.,1.));
#252=DIRECTION('',(0.,1.,0.));
#253=DIRECTION('center_axis',(0.,0.,-1.));
#254=DIRECTION('ref_axis',(-1.,0.,0.));
#255=DIRECTION('',(0.,1.,0.));
#256=DIRECTION('center_axis',(1.,0.,2.46716227694479E-16));
#257=DIRECTION('ref_axis',(2.46716227694479E-16,0.,-1.));
#258=DIRECTION('',(2.46716227694479E-16,0.,-1.));
#259=DIRECTION('center_axis',(0.,1.,0.));
#260=DIRECTION('ref_axis',(0.,0.,1.));
#261=CARTESIAN_POINT('',(0.,0.,0.));
#262=CARTESIAN_POINT('Origin',(-8.99999999999999,0.,6.));
#263=CARTESIAN_POINT('',(9.00000000000001,4.,6.));
#264=CARTESIAN_POINT('',(-8.99999999999999,4.,6.));
#265=CARTESIAN_POINT('',(-4.5,4.,6.));
#266=CARTESIAN_POINT('',(9.00000000000001,15.,6.));
#267=CARTESIAN_POINT('',(9.00000000000001,0.,6.));
#268=CARTESIAN_POINT('',(-8.99999999999999,15.,6.));
#269=CARTESIAN_POINT('',(9.00000000000001,15.,6.));
#270=CARTESIAN_POINT('',(-8.99999999999999,0.,6.));
#271=CARTESIAN_POINT('Origin',(9.,0.,-6.));
#272=CARTESIAN_POINT('',(-8.99999999999999,4.,-6.));
#273=CARTESIAN_POINT('',(9.00000000000001,4.,-6.));
#274=CARTESIAN_POINT('',(4.5,4.,-6.));
#275=CARTESIAN_POINT('',(-8.99999999999999,15.,-6.));
#276=CARTESIAN_POINT('',(-8.99999999999999,0.,-6.));
#277=CARTESIAN_POINT('',(9.,15.,-6.));
#278=CARTESIAN_POINT('',(-8.99999999999999,15.,-6.));
#279=CARTESIAN_POINT('',(9.,0.,-6.));
#280=CARTESIAN_POINT('Origin',(5.55111512312578E-15,15.,0.));
#281=CARTESIAN_POINT('',(9.,15.,-6.));
#282=CARTESIAN_POINT('',(-8.99999999999999,15.,6.));
#283=CARTESIAN_POINT('Origin',(-3.33066907387547E-15,0.,0.));
#284=CARTESIAN_POINT('',(9.00000000000001,0.,-9.));
#285=CARTESIAN_POINT('',(9.,0.,9.));
#286=CARTESIAN_POINT('',(9.00000000000001,0.,-9.));
#287=CARTESIAN_POINT('',(-9.,0.,9.));
#288=CARTESIAN_POINT('',(9.,0.,9.));
#289=CARTESIAN_POINT('',(-9.00000000000001,0.,-9.));
#290=CARTESIAN_POINT('',(-9.,0.,9.));
#291=CARTESIAN_POINT('',(-9.00000000000001,0.,-9.));
#292=CARTESIAN_POINT('Origin',(-3.33066907387547E-15,4.,0.));
#293=CARTESIAN_POINT('',(9.00000000000001,4.,-9.));
#294=CARTESIAN_POINT('',(9.00000000000001,4.,-9.));
#295=CARTESIAN_POINT('',(-9.00000000000001,4.,-9.));
#296=CARTESIAN_POINT('',(-9.00000000000001,4.,-9.));
#297=CARTESIAN_POINT('',(-9.,4.,9.));
#298=CARTESIAN_POINT('Origin',(-9.,0.,9.));
#299=CARTESIAN_POINT('',(9.,4.,9.));
#300=CARTESIAN_POINT('',(9.,0.,9.));
#301=CARTESIAN_POINT('',(-9.,4.,9.));
#302=CARTESIAN_POINT('',(9.,4.,9.));
#303=CARTESIAN_POINT('',(-9.,0.,9.));
#304=CARTESIAN_POINT('Origin',(-9.00000000000001,0.,-9.));
#305=CARTESIAN_POINT('',(-9.,4.,9.));
#306=CARTESIAN_POINT('',(-9.00000000000001,0.,-9.));
#307=CARTESIAN_POINT('Origin',(9.00000000000001,0.,-9.));
#308=CARTESIAN_POINT('',(9.00000000000001,0.,-9.));
#309=CARTESIAN_POINT('Origin',(9.,0.,9.));
#310=CARTESIAN_POINT('',(9.00000000000001,4.,-9.));
#311=CARTESIAN_POINT('Origin',(-3.33066907387547E-15,4.,0.));
#312=UNCERTAINTY_MEASURE_WITH_UNIT(LENGTH_MEASURE(0.01),#316,
'DISTANCE_ACCURACY_VALUE',
'Maximum model space distance between geometric entities at asserted c
onnectivities');
#313=UNCERTAINTY_MEASURE_WITH_UNIT(LENGTH_MEASURE(0.01),#316,
'DISTANCE_ACCURACY_VALUE',
'Maximum model space distance between geometric entities at asserted c
onnectivities');
#314=(
GEOMETRIC_REPRESENTATION_CONTEXT(3)
GLOBAL_UNCERTAINTY_ASSIGNED_CONTEXT((#312))
GLOBAL_UNIT_ASSIGNED_CONTEXT((#316,#318,#319))
REPRESENTATION_CONTEXT('','3D')
);
#315=(
GEOMETRIC_REPRESENTATION_CONTEXT(3)
GLOBAL_UNCERTAINTY_ASSIGNED_CONTEXT((#313))
GLOBAL_UNIT_ASSIGNED_CONTEXT((#316,#318,#319))
REPRESENTATION_CONTEXT('','3D')
);
#316=(
LENGTH_UNIT()
NAMED_UNIT(*)
SI_UNIT(.MILLI.,.METRE.)
);
#317=(
LENGTH_UNIT()
NAMED_UNIT(*)
SI_UNIT($,.METRE.)
);
#318=(
NAMED_UNIT(*)
PLANE_ANGLE_UNIT()
SI_UNIT($,.RADIAN.)
);
#319=(
NAMED_UNIT(*)
SI_UNIT($,.STERADIAN.)
SOLID_ANGLE_UNIT()
);
#320=SHAPE_DEFINITION_REPRESENTATION(#321,#322);
#321=PRODUCT_DEFINITION_SHAPE('',$,#324);
#322=SHAPE_REPRESENTATION('',(#204),#314);
#323=PRODUCT_DEFINITION_CONTEXT('part definition',#328,'design');
#324=PRODUCT_DEFINITION('Hamza','Hamza v1',#325,#323);
#325=PRODUCT_DEFINITION_FORMATION('',$,#330);
#326=PRODUCT_RELATED_PRODUCT_CATEGORY('Hamza v1','Hamza v1',(#330));
#327=APPLICATION_PROTOCOL_DEFINITION('international standard',
'automotive_design',2009,#328);
#328=APPLICATION_CONTEXT(
'Core Data for Automotive Mechanical Design Process');
#329=PRODUCT_CONTEXT('part definition',#328,'mechanical');
#330=PRODUCT('Hamza','Hamza v1',$,(#329));
#331=PRESENTATION_STYLE_ASSIGNMENT((#332));
#332=SURFACE_STYLE_USAGE(.BOTH.,#333);
#333=SURFACE_SIDE_STYLE('',(#334));
#334=SURFACE_STYLE_FILL_AREA(#335);
#335=FILL_AREA_STYLE('Stahl - satiniert',(#336));
#336=FILL_AREA_STYLE_COLOUR('Stahl - satiniert',#337);
#337=COLOUR_RGB('Stahl - satiniert',0.627450980392157,0.627450980392157,
0.627450980392157);
ENDSEC;
END-ISO-10303-21;
