ISO-10303-21;
HEADER;
/* Generated by software containing ST-Developer
 * from STEP Tools, Inc. (www.steptools.com) 
 */
/* OPTION: using custom schema-name function */

FILE_DESCRIPTION(
/* description */ (''),
/* implementation_level */ '2;1');

FILE_NAME(
/* name */ 'TO-39_Heimann.stp',
/* time_stamp */ '2023-03-02T17:47:03+01:00',
/* author */ (''),
/* organization */ (''),
/* preprocessor_version */ 'ST-DEVELOPER v18.1',
/* originating_system */ 'SIEMENS PLM Software NX 1988',
/* authorisation */ '');

FILE_SCHEMA (('AUTOMOTIVE_DESIGN { 1 0 10303 214 3 1 1 1 }'));
ENDSEC;

DATA;
#10=SHAPE_REPRESENTATION_RELATIONSHIP('None',
'relationship between TO-39_Heimann-None and TO-39_Heimann-None',#22,#11);
#11=ADVANCED_BREP_SHAPE_REPRESENTATION('TO-39_Heimann-None',(#196),#693);
#12=SHAPE_DEFINITION_REPRESENTATION(#13,#22);
#13=PRODUCT_DEFINITION_SHAPE('','',#14);
#14=PRODUCT_DEFINITION(' ','',#16,#15);
#15=PRODUCT_DEFINITION_CONTEXT('part definition',#21,'design');
#16=PRODUCT_DEFINITION_FORMATION_WITH_SPECIFIED_SOURCE(' ',' ',#18,
 .NOT_KNOWN.);
#17=PRODUCT_RELATED_PRODUCT_CATEGORY('part','',(#18));
#18=PRODUCT('TO-39_Heimann','TO-39_Heimann',' ',(#19));
#19=PRODUCT_CONTEXT(' ',#21,'mechanical');
#20=APPLICATION_PROTOCOL_DEFINITION('international standard',
'automotive_design',2010,#21);
#21=APPLICATION_CONTEXT(
'core data for automotive mechanical design processes');
#22=SHAPE_REPRESENTATION('TO-39_Heimann-None',(#475),#693);
#23=OVER_RIDING_STYLED_ITEM('',(#49),#259,#47);
#24=OVER_RIDING_STYLED_ITEM('',(#50),#260,#47);
#25=OVER_RIDING_STYLED_ITEM('',(#51),#261,#47);
#26=OVER_RIDING_STYLED_ITEM('',(#52),#262,#47);
#27=OVER_RIDING_STYLED_ITEM('',(#53),#263,#47);
#28=OVER_RIDING_STYLED_ITEM('',(#54),#264,#47);
#29=OVER_RIDING_STYLED_ITEM('',(#55),#265,#47);
#30=OVER_RIDING_STYLED_ITEM('',(#56),#266,#47);
#31=OVER_RIDING_STYLED_ITEM('',(#57),#267,#47);
#32=OVER_RIDING_STYLED_ITEM('',(#58),#268,#47);
#33=OVER_RIDING_STYLED_ITEM('',(#59),#269,#47);
#34=OVER_RIDING_STYLED_ITEM('',(#60),#270,#47);
#35=OVER_RIDING_STYLED_ITEM('',(#61),#271,#47);
#36=OVER_RIDING_STYLED_ITEM('',(#62),#272,#47);
#37=OVER_RIDING_STYLED_ITEM('',(#63),#273,#47);
#38=OVER_RIDING_STYLED_ITEM('',(#64),#274,#47);
#39=OVER_RIDING_STYLED_ITEM('',(#65),#275,#47);
#40=OVER_RIDING_STYLED_ITEM('',(#66),#276,#47);
#41=OVER_RIDING_STYLED_ITEM('',(#67),#277,#47);
#42=OVER_RIDING_STYLED_ITEM('',(#68),#278,#47);
#43=OVER_RIDING_STYLED_ITEM('',(#69),#279,#47);
#44=OVER_RIDING_STYLED_ITEM('',(#70),#280,#47);
#45=OVER_RIDING_STYLED_ITEM('',(#71),#281,#47);
#46=PRESENTATION_LAYER_ASSIGNMENT('1','Layer 1',(#196));
#47=STYLED_ITEM('',(#48),#196);
#48=PRESENTATION_STYLE_ASSIGNMENT((#72));
#49=PRESENTATION_STYLE_ASSIGNMENT((#73));
#50=PRESENTATION_STYLE_ASSIGNMENT((#74));
#51=PRESENTATION_STYLE_ASSIGNMENT((#75));
#52=PRESENTATION_STYLE_ASSIGNMENT((#76));
#53=PRESENTATION_STYLE_ASSIGNMENT((#77));
#54=PRESENTATION_STYLE_ASSIGNMENT((#78));
#55=PRESENTATION_STYLE_ASSIGNMENT((#79));
#56=PRESENTATION_STYLE_ASSIGNMENT((#80));
#57=PRESENTATION_STYLE_ASSIGNMENT((#81));
#58=PRESENTATION_STYLE_ASSIGNMENT((#82));
#59=PRESENTATION_STYLE_ASSIGNMENT((#83));
#60=PRESENTATION_STYLE_ASSIGNMENT((#84));
#61=PRESENTATION_STYLE_ASSIGNMENT((#85));
#62=PRESENTATION_STYLE_ASSIGNMENT((#86));
#63=PRESENTATION_STYLE_ASSIGNMENT((#87));
#64=PRESENTATION_STYLE_ASSIGNMENT((#88));
#65=PRESENTATION_STYLE_ASSIGNMENT((#89));
#66=PRESENTATION_STYLE_ASSIGNMENT((#90));
#67=PRESENTATION_STYLE_ASSIGNMENT((#91));
#68=PRESENTATION_STYLE_ASSIGNMENT((#92));
#69=PRESENTATION_STYLE_ASSIGNMENT((#93));
#70=PRESENTATION_STYLE_ASSIGNMENT((#94));
#71=PRESENTATION_STYLE_ASSIGNMENT((#95));
#72=SURFACE_STYLE_USAGE(.BOTH.,#96);
#73=SURFACE_STYLE_USAGE(.BOTH.,#97);
#74=SURFACE_STYLE_USAGE(.BOTH.,#98);
#75=SURFACE_STYLE_USAGE(.BOTH.,#99);
#76=SURFACE_STYLE_USAGE(.BOTH.,#100);
#77=SURFACE_STYLE_USAGE(.BOTH.,#101);
#78=SURFACE_STYLE_USAGE(.BOTH.,#102);
#79=SURFACE_STYLE_USAGE(.BOTH.,#103);
#80=SURFACE_STYLE_USAGE(.BOTH.,#104);
#81=SURFACE_STYLE_USAGE(.BOTH.,#105);
#82=SURFACE_STYLE_USAGE(.BOTH.,#106);
#83=SURFACE_STYLE_USAGE(.BOTH.,#107);
#84=SURFACE_STYLE_USAGE(.BOTH.,#108);
#85=SURFACE_STYLE_USAGE(.BOTH.,#109);
#86=SURFACE_STYLE_USAGE(.BOTH.,#110);
#87=SURFACE_STYLE_USAGE(.BOTH.,#111);
#88=SURFACE_STYLE_USAGE(.BOTH.,#112);
#89=SURFACE_STYLE_USAGE(.BOTH.,#113);
#90=SURFACE_STYLE_USAGE(.BOTH.,#114);
#91=SURFACE_STYLE_USAGE(.BOTH.,#115);
#92=SURFACE_STYLE_USAGE(.BOTH.,#116);
#93=SURFACE_STYLE_USAGE(.BOTH.,#117);
#94=SURFACE_STYLE_USAGE(.BOTH.,#118);
#95=SURFACE_STYLE_USAGE(.BOTH.,#119);
#96=SURFACE_SIDE_STYLE('',(#120));
#97=SURFACE_SIDE_STYLE('',(#121));
#98=SURFACE_SIDE_STYLE('',(#122));
#99=SURFACE_SIDE_STYLE('',(#123));
#100=SURFACE_SIDE_STYLE('',(#124));
#101=SURFACE_SIDE_STYLE('',(#125));
#102=SURFACE_SIDE_STYLE('',(#126));
#103=SURFACE_SIDE_STYLE('',(#127));
#104=SURFACE_SIDE_STYLE('',(#128));
#105=SURFACE_SIDE_STYLE('',(#129));
#106=SURFACE_SIDE_STYLE('',(#130));
#107=SURFACE_SIDE_STYLE('',(#131));
#108=SURFACE_SIDE_STYLE('',(#132));
#109=SURFACE_SIDE_STYLE('',(#133));
#110=SURFACE_SIDE_STYLE('',(#134));
#111=SURFACE_SIDE_STYLE('',(#135));
#112=SURFACE_SIDE_STYLE('',(#136));
#113=SURFACE_SIDE_STYLE('',(#137));
#114=SURFACE_SIDE_STYLE('',(#138));
#115=SURFACE_SIDE_STYLE('',(#139));
#116=SURFACE_SIDE_STYLE('',(#140));
#117=SURFACE_SIDE_STYLE('',(#141));
#118=SURFACE_SIDE_STYLE('',(#142));
#119=SURFACE_SIDE_STYLE('',(#143));
#120=SURFACE_STYLE_FILL_AREA(#144);
#121=SURFACE_STYLE_FILL_AREA(#145);
#122=SURFACE_STYLE_FILL_AREA(#146);
#123=SURFACE_STYLE_FILL_AREA(#147);
#124=SURFACE_STYLE_FILL_AREA(#148);
#125=SURFACE_STYLE_FILL_AREA(#149);
#126=SURFACE_STYLE_FILL_AREA(#150);
#127=SURFACE_STYLE_FILL_AREA(#151);
#128=SURFACE_STYLE_FILL_AREA(#152);
#129=SURFACE_STYLE_FILL_AREA(#153);
#130=SURFACE_STYLE_FILL_AREA(#154);
#131=SURFACE_STYLE_FILL_AREA(#155);
#132=SURFACE_STYLE_FILL_AREA(#156);
#133=SURFACE_STYLE_FILL_AREA(#157);
#134=SURFACE_STYLE_FILL_AREA(#158);
#135=SURFACE_STYLE_FILL_AREA(#159);
#136=SURFACE_STYLE_FILL_AREA(#160);
#137=SURFACE_STYLE_FILL_AREA(#161);
#138=SURFACE_STYLE_FILL_AREA(#162);
#139=SURFACE_STYLE_FILL_AREA(#163);
#140=SURFACE_STYLE_FILL_AREA(#164);
#141=SURFACE_STYLE_FILL_AREA(#165);
#142=SURFACE_STYLE_FILL_AREA(#166);
#143=SURFACE_STYLE_FILL_AREA(#167);
#144=FILL_AREA_STYLE('',(#168));
#145=FILL_AREA_STYLE('',(#169));
#146=FILL_AREA_STYLE('',(#170));
#147=FILL_AREA_STYLE('',(#171));
#148=FILL_AREA_STYLE('',(#172));
#149=FILL_AREA_STYLE('',(#173));
#150=FILL_AREA_STYLE('',(#174));
#151=FILL_AREA_STYLE('',(#175));
#152=FILL_AREA_STYLE('',(#176));
#153=FILL_AREA_STYLE('',(#177));
#154=FILL_AREA_STYLE('',(#178));
#155=FILL_AREA_STYLE('',(#179));
#156=FILL_AREA_STYLE('',(#180));
#157=FILL_AREA_STYLE('',(#181));
#158=FILL_AREA_STYLE('',(#182));
#159=FILL_AREA_STYLE('',(#183));
#160=FILL_AREA_STYLE('',(#184));
#161=FILL_AREA_STYLE('',(#185));
#162=FILL_AREA_STYLE('',(#186));
#163=FILL_AREA_STYLE('',(#187));
#164=FILL_AREA_STYLE('',(#188));
#165=FILL_AREA_STYLE('',(#189));
#166=FILL_AREA_STYLE('',(#190));
#167=FILL_AREA_STYLE('',(#191));
#168=FILL_AREA_STYLE_COLOUR('',#192);
#169=FILL_AREA_STYLE_COLOUR('',#193);
#170=FILL_AREA_STYLE_COLOUR('',#193);
#171=FILL_AREA_STYLE_COLOUR('',#193);
#172=FILL_AREA_STYLE_COLOUR('',#193);
#173=FILL_AREA_STYLE_COLOUR('',#193);
#174=FILL_AREA_STYLE_COLOUR('',#193);
#175=FILL_AREA_STYLE_COLOUR('',#194);
#176=FILL_AREA_STYLE_COLOUR('',#194);
#177=FILL_AREA_STYLE_COLOUR('',#194);
#178=FILL_AREA_STYLE_COLOUR('',#195);
#179=FILL_AREA_STYLE_COLOUR('',#194);
#180=FILL_AREA_STYLE_COLOUR('',#194);
#181=FILL_AREA_STYLE_COLOUR('',#194);
#182=FILL_AREA_STYLE_COLOUR('',#194);
#183=FILL_AREA_STYLE_COLOUR('',#194);
#184=FILL_AREA_STYLE_COLOUR('',#193);
#185=FILL_AREA_STYLE_COLOUR('',#193);
#186=FILL_AREA_STYLE_COLOUR('',#193);
#187=FILL_AREA_STYLE_COLOUR('',#193);
#188=FILL_AREA_STYLE_COLOUR('',#193);
#189=FILL_AREA_STYLE_COLOUR('',#193);
#190=FILL_AREA_STYLE_COLOUR('',#193);
#191=FILL_AREA_STYLE_COLOUR('',#193);
#192=COLOUR_RGB('Medium Steel',0.611764705882353,0.658823529411765,0.670588235294118);
#193=COLOUR_RGB('medium gold',0.882352941176471,0.76078431372549,0.282352941176471);
#194=COLOUR_RGB('smoke gray',0.694117647058824,0.694117647058824,0.694117647058824);
#195=COLOUR_RGB('strong midnight',0.164705882352941,0.286274509803922,0.447058823529412);
#196=MANIFOLD_SOLID_BREP('',#197);
#197=CLOSED_SHELL('',(#259,#260,#261,#262,#263,#264,#265,#266,#267,#268,
#269,#270,#271,#272,#273,#274,#275,#276,#277,#278,#279,#280,#281));
#198=TOROIDAL_SURFACE('',#501,3.42000000002876,0.5);
#199=TOROIDAL_SURFACE('',#502,3.5749999999852,0.5);
#200=TOROIDAL_SURFACE('',#503,1.80000000000924,0.5);
#201=TOROIDAL_SURFACE('',#504,2.55397459624432,0.5);
#202=TOROIDAL_SURFACE('',#505,4.3249999999852,0.25);
#203=FACE_BOUND('',#307,.T.);
#204=FACE_BOUND('',#308,.T.);
#205=FACE_BOUND('',#309,.T.);
#206=FACE_BOUND('',#310,.T.);
#207=FACE_BOUND('',#311,.T.);
#208=FACE_BOUND('',#312,.T.);
#209=FACE_BOUND('',#313,.T.);
#210=FACE_BOUND('',#314,.T.);
#211=FACE_BOUND('',#315,.T.);
#212=FACE_BOUND('',#316,.T.);
#213=FACE_BOUND('',#317,.T.);
#214=FACE_BOUND('',#318,.T.);
#215=FACE_BOUND('',#319,.T.);
#216=FACE_BOUND('',#321,.T.);
#217=FACE_BOUND('',#322,.T.);
#218=FACE_BOUND('',#323,.T.);
#219=FACE_BOUND('',#324,.T.);
#220=FACE_BOUND('',#325,.T.);
#221=FACE_BOUND('',#326,.T.);
#222=FACE_BOUND('',#327,.T.);
#223=FACE_BOUND('',#328,.T.);
#224=FACE_BOUND('',#329,.T.);
#225=FACE_BOUND('',#330,.T.);
#226=FACE_BOUND('',#331,.T.);
#227=FACE_BOUND('',#332,.T.);
#228=FACE_BOUND('',#334,.T.);
#229=FACE_BOUND('',#335,.T.);
#230=FACE_BOUND('',#337,.T.);
#231=FACE_BOUND('',#338,.T.);
#232=FACE_BOUND('',#340,.T.);
#233=FACE_BOUND('',#341,.T.);
#234=CYLINDRICAL_SURFACE('',#481,4.57000000000078);
#235=CYLINDRICAL_SURFACE('',#491,4.0749999999852);
#236=CYLINDRICAL_SURFACE('',#507,0.225);
#237=CYLINDRICAL_SURFACE('',#510,0.225);
#238=CYLINDRICAL_SURFACE('',#513,0.225);
#239=CYLINDRICAL_SURFACE('',#516,0.225);
#240=CIRCLE('',#479,4.57000000000078);
#241=CIRCLE('',#480,4.57000000000078);
#242=CIRCLE('',#482,4.3249999999852);
#243=CIRCLE('',#484,0.225);
#244=CIRCLE('',#485,0.225);
#245=CIRCLE('',#486,0.225);
#246=CIRCLE('',#487,0.225);
#247=CIRCLE('',#489,4.0749999999852);
#248=CIRCLE('',#490,4.0749999999852);
#249=CIRCLE('',#492,3.42000000002876);
#250=CIRCLE('',#493,3.5749999999852);
#251=CIRCLE('',#495,1.80000000000924);
#252=CIRCLE('',#496,2.55397459624432);
#253=CIRCLE('',#498,1.30000000000924);
#254=CIRCLE('',#500,2.98698729813654);
#255=CIRCLE('',#506,0.225);
#256=CIRCLE('',#509,0.225);
#257=CIRCLE('',#512,0.225);
#258=CIRCLE('',#515,0.225);
#259=ADVANCED_FACE('',(#294),#282,.F.);
#260=ADVANCED_FACE('',(#295),#283,.F.);
#261=ADVANCED_FACE('',(#296),#284,.F.);
#262=ADVANCED_FACE('',(#297),#234,.T.);
#263=ADVANCED_FACE('',(#203,#204),#285,.T.);
#264=ADVANCED_FACE('',(#205,#206,#207,#208,#209),#286,.F.);
#265=ADVANCED_FACE('',(#210,#211),#235,.T.);
#266=ADVANCED_FACE('',(#212,#213),#287,.T.);
#267=ADVANCED_FACE('',(#214,#215),#288,.T.);
#268=ADVANCED_FACE('',(#298),#289,.T.);
#269=ADVANCED_FACE('',(#216,#217),#198,.F.);
#270=ADVANCED_FACE('',(#218,#219),#199,.T.);
#271=ADVANCED_FACE('',(#220,#221),#200,.T.);
#272=ADVANCED_FACE('',(#222,#223),#201,.T.);
#273=ADVANCED_FACE('',(#224,#225),#202,.F.);
#274=ADVANCED_FACE('',(#226,#227),#236,.T.);
#275=ADVANCED_FACE('',(#299),#290,.T.);
#276=ADVANCED_FACE('',(#228,#229),#237,.T.);
#277=ADVANCED_FACE('',(#300),#291,.F.);
#278=ADVANCED_FACE('',(#230,#231),#238,.T.);
#279=ADVANCED_FACE('',(#301),#292,.F.);
#280=ADVANCED_FACE('',(#232,#233),#239,.T.);
#281=ADVANCED_FACE('',(#302),#293,.T.);
#282=PLANE('',#476);
#283=PLANE('',#477);
#284=PLANE('',#478);
#285=PLANE('',#483);
#286=PLANE('',#488);
#287=PLANE('',#494);
#288=PLANE('',#497);
#289=PLANE('',#499);
#290=PLANE('',#508);
#291=PLANE('',#511);
#292=PLANE('',#514);
#293=PLANE('',#517);
#294=FACE_OUTER_BOUND('',#303,.T.);
#295=FACE_OUTER_BOUND('',#304,.T.);
#296=FACE_OUTER_BOUND('',#305,.T.);
#297=FACE_OUTER_BOUND('',#306,.T.);
#298=FACE_OUTER_BOUND('',#320,.T.);
#299=FACE_OUTER_BOUND('',#333,.T.);
#300=FACE_OUTER_BOUND('',#336,.T.);
#301=FACE_OUTER_BOUND('',#339,.T.);
#302=FACE_OUTER_BOUND('',#342,.T.);
#303=EDGE_LOOP('',(#343,#344,#345,#346));
#304=EDGE_LOOP('',(#347,#348,#349,#350));
#305=EDGE_LOOP('',(#351,#352,#353,#354));
#306=EDGE_LOOP('',(#355,#356,#357,#358));
#307=EDGE_LOOP('',(#359));
#308=EDGE_LOOP('',(#360,#361,#362,#363));
#309=EDGE_LOOP('',(#364));
#310=EDGE_LOOP('',(#365));
#311=EDGE_LOOP('',(#366));
#312=EDGE_LOOP('',(#367));
#313=EDGE_LOOP('',(#368,#369,#370,#371));
#314=EDGE_LOOP('',(#372));
#315=EDGE_LOOP('',(#373));
#316=EDGE_LOOP('',(#374));
#317=EDGE_LOOP('',(#375));
#318=EDGE_LOOP('',(#376));
#319=EDGE_LOOP('',(#377));
#320=EDGE_LOOP('',(#378));
#321=EDGE_LOOP('',(#379));
#322=EDGE_LOOP('',(#380));
#323=EDGE_LOOP('',(#381));
#324=EDGE_LOOP('',(#382));
#325=EDGE_LOOP('',(#383));
#326=EDGE_LOOP('',(#384));
#327=EDGE_LOOP('',(#385));
#328=EDGE_LOOP('',(#386));
#329=EDGE_LOOP('',(#387));
#330=EDGE_LOOP('',(#388));
#331=EDGE_LOOP('',(#389));
#332=EDGE_LOOP('',(#390));
#333=EDGE_LOOP('',(#391));
#334=EDGE_LOOP('',(#392));
#335=EDGE_LOOP('',(#393));
#336=EDGE_LOOP('',(#394));
#337=EDGE_LOOP('',(#395));
#338=EDGE_LOOP('',(#396));
#339=EDGE_LOOP('',(#397));
#340=EDGE_LOOP('',(#398));
#341=EDGE_LOOP('',(#399));
#342=EDGE_LOOP('',(#400));
#343=ORIENTED_EDGE('',*,*,#426,.T.);
#344=ORIENTED_EDGE('',*,*,#427,.F.);
#345=ORIENTED_EDGE('',*,*,#428,.F.);
#346=ORIENTED_EDGE('',*,*,#429,.T.);
#347=ORIENTED_EDGE('',*,*,#430,.T.);
#348=ORIENTED_EDGE('',*,*,#431,.F.);
#349=ORIENTED_EDGE('',*,*,#432,.F.);
#350=ORIENTED_EDGE('',*,*,#427,.T.);
#351=ORIENTED_EDGE('',*,*,#433,.T.);
#352=ORIENTED_EDGE('',*,*,#434,.F.);
#353=ORIENTED_EDGE('',*,*,#435,.F.);
#354=ORIENTED_EDGE('',*,*,#431,.T.);
#355=ORIENTED_EDGE('',*,*,#436,.T.);
#356=ORIENTED_EDGE('',*,*,#429,.F.);
#357=ORIENTED_EDGE('',*,*,#437,.F.);
#358=ORIENTED_EDGE('',*,*,#434,.T.);
#359=ORIENTED_EDGE('',*,*,#438,.T.);
#360=ORIENTED_EDGE('',*,*,#428,.T.);
#361=ORIENTED_EDGE('',*,*,#432,.T.);
#362=ORIENTED_EDGE('',*,*,#435,.T.);
#363=ORIENTED_EDGE('',*,*,#437,.T.);
#364=ORIENTED_EDGE('',*,*,#439,.F.);
#365=ORIENTED_EDGE('',*,*,#440,.T.);
#366=ORIENTED_EDGE('',*,*,#441,.T.);
#367=ORIENTED_EDGE('',*,*,#442,.F.);
#368=ORIENTED_EDGE('',*,*,#426,.F.);
#369=ORIENTED_EDGE('',*,*,#436,.F.);
#370=ORIENTED_EDGE('',*,*,#433,.F.);
#371=ORIENTED_EDGE('',*,*,#430,.F.);
#372=ORIENTED_EDGE('',*,*,#443,.T.);
#373=ORIENTED_EDGE('',*,*,#444,.T.);
#374=ORIENTED_EDGE('',*,*,#445,.T.);
#375=ORIENTED_EDGE('',*,*,#446,.T.);
#376=ORIENTED_EDGE('',*,*,#447,.T.);
#377=ORIENTED_EDGE('',*,*,#448,.T.);
#378=ORIENTED_EDGE('',*,*,#449,.F.);
#379=ORIENTED_EDGE('',*,*,#450,.T.);
#380=ORIENTED_EDGE('',*,*,#445,.F.);
#381=ORIENTED_EDGE('',*,*,#444,.F.);
#382=ORIENTED_EDGE('',*,*,#446,.F.);
#383=ORIENTED_EDGE('',*,*,#447,.F.);
#384=ORIENTED_EDGE('',*,*,#449,.T.);
#385=ORIENTED_EDGE('',*,*,#450,.F.);
#386=ORIENTED_EDGE('',*,*,#448,.F.);
#387=ORIENTED_EDGE('',*,*,#438,.F.);
#388=ORIENTED_EDGE('',*,*,#443,.F.);
#389=ORIENTED_EDGE('',*,*,#451,.F.);
#390=ORIENTED_EDGE('',*,*,#442,.T.);
#391=ORIENTED_EDGE('',*,*,#451,.T.);
#392=ORIENTED_EDGE('',*,*,#452,.T.);
#393=ORIENTED_EDGE('',*,*,#441,.F.);
#394=ORIENTED_EDGE('',*,*,#452,.F.);
#395=ORIENTED_EDGE('',*,*,#453,.T.);
#396=ORIENTED_EDGE('',*,*,#440,.F.);
#397=ORIENTED_EDGE('',*,*,#453,.F.);
#398=ORIENTED_EDGE('',*,*,#454,.F.);
#399=ORIENTED_EDGE('',*,*,#439,.T.);
#400=ORIENTED_EDGE('',*,*,#454,.T.);
#401=VERTEX_POINT('',#616);
#402=VERTEX_POINT('',#617);
#403=VERTEX_POINT('',#619);
#404=VERTEX_POINT('',#621);
#405=VERTEX_POINT('',#625);
#406=VERTEX_POINT('',#627);
#407=VERTEX_POINT('',#631);
#408=VERTEX_POINT('',#633);
#409=VERTEX_POINT('',#640);
#410=VERTEX_POINT('',#643);
#411=VERTEX_POINT('',#645);
#412=VERTEX_POINT('',#647);
#413=VERTEX_POINT('',#649);
#414=VERTEX_POINT('',#652);
#415=VERTEX_POINT('',#654);
#416=VERTEX_POINT('',#657);
#417=VERTEX_POINT('',#659);
#418=VERTEX_POINT('',#662);
#419=VERTEX_POINT('',#664);
#420=VERTEX_POINT('',#667);
#421=VERTEX_POINT('',#670);
#422=VERTEX_POINT('',#677);
#423=VERTEX_POINT('',#681);
#424=VERTEX_POINT('',#685);
#425=VERTEX_POINT('',#689);
#426=EDGE_CURVE('',#401,#402,#455,.T.);
#427=EDGE_CURVE('',#403,#402,#456,.T.);
#428=EDGE_CURVE('',#404,#403,#457,.T.);
#429=EDGE_CURVE('',#404,#401,#458,.T.);
#430=EDGE_CURVE('',#402,#405,#459,.T.);
#431=EDGE_CURVE('',#406,#405,#460,.T.);
#432=EDGE_CURVE('',#403,#406,#461,.T.);
#433=EDGE_CURVE('',#405,#407,#462,.T.);
#434=EDGE_CURVE('',#408,#407,#463,.T.);
#435=EDGE_CURVE('',#406,#408,#464,.T.);
#436=EDGE_CURVE('',#407,#401,#240,.T.);
#437=EDGE_CURVE('',#408,#404,#241,.T.);
#438=EDGE_CURVE('',#409,#409,#242,.T.);
#439=EDGE_CURVE('',#410,#410,#243,.T.);
#440=EDGE_CURVE('',#411,#411,#244,.T.);
#441=EDGE_CURVE('',#412,#412,#245,.T.);
#442=EDGE_CURVE('',#413,#413,#246,.T.);
#443=EDGE_CURVE('',#414,#414,#247,.T.);
#444=EDGE_CURVE('',#415,#415,#248,.T.);
#445=EDGE_CURVE('',#416,#416,#249,.T.);
#446=EDGE_CURVE('',#417,#417,#250,.T.);
#447=EDGE_CURVE('',#418,#418,#251,.T.);
#448=EDGE_CURVE('',#419,#419,#252,.T.);
#449=EDGE_CURVE('',#420,#420,#253,.T.);
#450=EDGE_CURVE('',#421,#421,#254,.T.);
#451=EDGE_CURVE('',#422,#422,#255,.T.);
#452=EDGE_CURVE('',#423,#423,#256,.T.);
#453=EDGE_CURVE('',#424,#424,#257,.T.);
#454=EDGE_CURVE('',#425,#425,#258,.T.);
#455=LINE('',#615,#465);
#456=LINE('',#618,#466);
#457=LINE('',#620,#467);
#458=LINE('',#622,#468);
#459=LINE('',#624,#469);
#460=LINE('',#626,#470);
#461=LINE('',#628,#471);
#462=LINE('',#630,#472);
#463=LINE('',#632,#473);
#464=LINE('',#634,#474);
#465=VECTOR('',#520,1.);
#466=VECTOR('',#521,1.);
#467=VECTOR('',#522,1.);
#468=VECTOR('',#523,1.);
#469=VECTOR('',#526,1.);
#470=VECTOR('',#527,1.);
#471=VECTOR('',#528,1.);
#472=VECTOR('',#531,1.);
#473=VECTOR('',#532,1.);
#474=VECTOR('',#533,1.);
#475=AXIS2_PLACEMENT_3D('',#614,#518,#519);
#476=AXIS2_PLACEMENT_3D('',#623,#524,#525);
#477=AXIS2_PLACEMENT_3D('',#629,#529,#530);
#478=AXIS2_PLACEMENT_3D('',#635,#534,#535);
#479=AXIS2_PLACEMENT_3D('',#636,#536,#537);
#480=AXIS2_PLACEMENT_3D('',#637,#538,#539);
#481=AXIS2_PLACEMENT_3D('',#638,#540,#541);
#482=AXIS2_PLACEMENT_3D('',#639,#542,#543);
#483=AXIS2_PLACEMENT_3D('',#641,#544,#545);
#484=AXIS2_PLACEMENT_3D('',#642,#546,#547);
#485=AXIS2_PLACEMENT_3D('',#644,#548,#549);
#486=AXIS2_PLACEMENT_3D('',#646,#550,#551);
#487=AXIS2_PLACEMENT_3D('',#648,#552,#553);
#488=AXIS2_PLACEMENT_3D('',#650,#554,#555);
#489=AXIS2_PLACEMENT_3D('',#651,#556,#557);
#490=AXIS2_PLACEMENT_3D('',#653,#558,#559);
#491=AXIS2_PLACEMENT_3D('',#655,#560,#561);
#492=AXIS2_PLACEMENT_3D('',#656,#562,#563);
#493=AXIS2_PLACEMENT_3D('',#658,#564,#565);
#494=AXIS2_PLACEMENT_3D('',#660,#566,#567);
#495=AXIS2_PLACEMENT_3D('',#661,#568,#569);
#496=AXIS2_PLACEMENT_3D('',#663,#570,#571);
#497=AXIS2_PLACEMENT_3D('',#665,#572,#573);
#498=AXIS2_PLACEMENT_3D('',#666,#574,#575);
#499=AXIS2_PLACEMENT_3D('',#668,#576,#577);
#500=AXIS2_PLACEMENT_3D('',#669,#578,#579);
#501=AXIS2_PLACEMENT_3D('',#671,#580,#581);
#502=AXIS2_PLACEMENT_3D('',#672,#582,#583);
#503=AXIS2_PLACEMENT_3D('',#673,#584,#585);
#504=AXIS2_PLACEMENT_3D('',#674,#586,#587);
#505=AXIS2_PLACEMENT_3D('',#675,#588,#589);
#506=AXIS2_PLACEMENT_3D('',#676,#590,#591);
#507=AXIS2_PLACEMENT_3D('',#678,#592,#593);
#508=AXIS2_PLACEMENT_3D('',#679,#594,#595);
#509=AXIS2_PLACEMENT_3D('',#680,#596,#597);
#510=AXIS2_PLACEMENT_3D('',#682,#598,#599);
#511=AXIS2_PLACEMENT_3D('',#683,#600,#601);
#512=AXIS2_PLACEMENT_3D('',#684,#602,#603);
#513=AXIS2_PLACEMENT_3D('',#686,#604,#605);
#514=AXIS2_PLACEMENT_3D('',#687,#606,#607);
#515=AXIS2_PLACEMENT_3D('',#688,#608,#609);
#516=AXIS2_PLACEMENT_3D('',#690,#610,#611);
#517=AXIS2_PLACEMENT_3D('',#691,#612,#613);
#518=DIRECTION('',(0.,0.,1.));
#519=DIRECTION('',(1.,0.,0.));
#520=DIRECTION('',(0.,-1.,0.));
#521=DIRECTION('',(0.,0.,-1.));
#522=DIRECTION('',(0.,-1.,0.));
#523=DIRECTION('',(0.,0.,-1.));
#524=DIRECTION('',(1.,0.,0.));
#525=DIRECTION('',(0.,0.,-1.));
#526=DIRECTION('',(1.,0.,0.));
#527=DIRECTION('',(0.,0.,-1.));
#528=DIRECTION('',(1.,0.,0.));
#529=DIRECTION('',(0.,1.,0.));
#530=DIRECTION('',(0.,0.,1.));
#531=DIRECTION('',(0.,1.,0.));
#532=DIRECTION('',(0.,0.,-1.));
#533=DIRECTION('',(0.,1.,0.));
#534=DIRECTION('',(-1.,0.,0.));
#535=DIRECTION('',(0.,0.,1.));
#536=DIRECTION('',(0.,0.,1.));
#537=DIRECTION('',(1.,0.,0.));
#538=DIRECTION('',(0.,0.,1.));
#539=DIRECTION('',(1.,0.,0.));
#540=DIRECTION('',(0.,0.,-1.));
#541=DIRECTION('',(-1.,0.,0.));
#542=DIRECTION('',(0.,0.,-1.));
#543=DIRECTION('',(1.,0.,0.));
#544=DIRECTION('',(0.,0.,1.));
#545=DIRECTION('',(1.,0.,0.));
#546=DIRECTION('',(0.,0.,-1.));
#547=DIRECTION('',(1.,0.,0.));
#548=DIRECTION('',(0.,0.,1.));
#549=DIRECTION('',(-1.,0.,0.));
#550=DIRECTION('',(0.,0.,1.));
#551=DIRECTION('',(1.,0.,0.));
#552=DIRECTION('',(0.,0.,-1.));
#553=DIRECTION('',(1.,0.,0.));
#554=DIRECTION('',(0.,0.,1.));
#555=DIRECTION('',(1.,0.,0.));
#556=DIRECTION('',(0.,0.,1.));
#557=DIRECTION('',(1.,0.,0.));
#558=DIRECTION('',(0.,0.,-1.));
#559=DIRECTION('',(1.,0.,0.));
#560=DIRECTION('',(0.,0.,-1.));
#561=DIRECTION('',(-1.,0.,0.));
#562=DIRECTION('',(0.,0.,-1.));
#563=DIRECTION('',(1.,0.,0.));
#564=DIRECTION('',(0.,0.,1.));
#565=DIRECTION('',(1.,0.,0.));
#566=DIRECTION('',(0.,0.,1.));
#567=DIRECTION('',(1.,0.,0.));
#568=DIRECTION('',(0.,0.,-1.));
#569=DIRECTION('',(1.,0.,0.));
#570=DIRECTION('',(0.,0.,1.));
#571=DIRECTION('',(1.,0.,0.));
#572=DIRECTION('',(0.,0.,1.));
#573=DIRECTION('',(1.,0.,0.));
#574=DIRECTION('',(0.,0.,-1.));
#575=DIRECTION('',(1.,0.,0.));
#576=DIRECTION('',(0.,0.,1.));
#577=DIRECTION('',(1.,0.,0.));
#578=DIRECTION('',(0.,0.,-1.));
#579=DIRECTION('',(1.,0.,0.));
#580=DIRECTION('',(0.,0.,1.));
#581=DIRECTION('',(1.,0.,0.));
#582=DIRECTION('',(0.,0.,1.));
#583=DIRECTION('',(1.,0.,0.));
#584=DIRECTION('',(0.,0.,1.));
#585=DIRECTION('',(1.,0.,0.));
#586=DIRECTION('',(0.,0.,-1.));
#587=DIRECTION('',(-1.,0.,0.));
#588=DIRECTION('',(0.,0.,1.));
#589=DIRECTION('',(1.,0.,0.));
#590=DIRECTION('',(0.,0.,-1.));
#591=DIRECTION('',(1.,0.,0.));
#592=DIRECTION('',(0.,0.,1.));
#593=DIRECTION('',(1.,0.,0.));
#594=DIRECTION('',(0.,0.,-1.));
#595=DIRECTION('',(-1.,0.,0.));
#596=DIRECTION('',(0.,0.,1.));
#597=DIRECTION('',(1.,0.,0.));
#598=DIRECTION('',(0.,0.,1.));
#599=DIRECTION('',(1.,0.,0.));
#600=DIRECTION('',(0.,0.,1.));
#601=DIRECTION('',(1.,0.,0.));
#602=DIRECTION('',(0.,0.,1.));
#603=DIRECTION('',(-1.,0.,0.));
#604=DIRECTION('',(0.,0.,1.));
#605=DIRECTION('',(1.,0.,0.));
#606=DIRECTION('',(0.,0.,1.));
#607=DIRECTION('',(1.,0.,0.));
#608=DIRECTION('',(0.,0.,-1.));
#609=DIRECTION('',(-1.,0.,0.));
#610=DIRECTION('',(0.,0.,1.));
#611=DIRECTION('',(1.,0.,0.));
#612=DIRECTION('',(0.,0.,-1.));
#613=DIRECTION('',(-1.,0.,0.));
#614=CARTESIAN_POINT('',(0.,0.,0.));
#615=CARTESIAN_POINT('',(-0.405,-4.55201878291458,0.));
#616=CARTESIAN_POINT('',(-0.405,-4.55201878291458,0.));
#617=CARTESIAN_POINT('',(-0.405,-5.46000000000078,0.));
#618=CARTESIAN_POINT('',(-0.405,-5.46000000000078,0.65));
#619=CARTESIAN_POINT('',(-0.405,-5.46000000000078,0.65));
#620=CARTESIAN_POINT('',(-0.405,-4.55201878291458,0.65));
#621=CARTESIAN_POINT('',(-0.405,-4.55201878291458,0.65));
#622=CARTESIAN_POINT('',(-0.405,-4.55201878291458,0.65));
#623=CARTESIAN_POINT('',(-0.405,-4.55201878291458,0.65));
#624=CARTESIAN_POINT('',(-0.405,-5.46000000000078,0.));
#625=CARTESIAN_POINT('',(0.405,-5.46000000000078,0.));
#626=CARTESIAN_POINT('',(0.405,-5.46000000000078,0.65));
#627=CARTESIAN_POINT('',(0.405,-5.46000000000078,0.65));
#628=CARTESIAN_POINT('',(-0.405,-5.46000000000078,0.65));
#629=CARTESIAN_POINT('',(-0.405,-5.46000000000078,0.65));
#630=CARTESIAN_POINT('',(0.405,-5.46000000000078,0.));
#631=CARTESIAN_POINT('',(0.405,-4.55201878291458,0.));
#632=CARTESIAN_POINT('',(0.405,-4.55201878291458,0.65));
#633=CARTESIAN_POINT('',(0.405,-4.55201878291458,0.65));
#634=CARTESIAN_POINT('',(0.405,-5.46000000000078,0.65));
#635=CARTESIAN_POINT('',(0.405,-5.46000000000078,0.65));
#636=CARTESIAN_POINT('',(0.,0.,0.));
#637=CARTESIAN_POINT('',(0.,0.,0.65));
#638=CARTESIAN_POINT('',(0.,0.,0.65));
#639=CARTESIAN_POINT('',(0.,0.,0.65));
#640=CARTESIAN_POINT('',(4.3249999999852,0.,0.65));
#641=CARTESIAN_POINT('',(0.,0.,0.65));
#642=CARTESIAN_POINT('',(1.11743562250952,2.69772823494131,0.));
#643=CARTESIAN_POINT('',(1.34243562250952,2.69772823494131,0.));
#644=CARTESIAN_POINT('',(1.11743562250952,-2.69772823494131,0.));
#645=CARTESIAN_POINT('',(0.892435622509524,-2.69772823494131,0.));
#646=CARTESIAN_POINT('',(-1.11743562250952,2.69772823494131,0.));
#647=CARTESIAN_POINT('',(-0.892435622509524,2.69772823494131,0.));
#648=CARTESIAN_POINT('',(-1.11743562250952,-2.69772823494131,0.));
#649=CARTESIAN_POINT('',(-0.892435622509524,-2.69772823494131,0.));
#650=CARTESIAN_POINT('',(0.,0.,0.));
#651=CARTESIAN_POINT('',(0.,0.,0.9));
#652=CARTESIAN_POINT('',(4.0749999999852,0.,0.9));
#653=CARTESIAN_POINT('',(0.,0.,3.45));
#654=CARTESIAN_POINT('',(4.0749999999852,0.,3.45));
#655=CARTESIAN_POINT('',(0.,0.,3.95));
#656=CARTESIAN_POINT('',(0.,0.,3.95));
#657=CARTESIAN_POINT('',(3.42000000002876,0.,3.95));
#658=CARTESIAN_POINT('',(0.,0.,3.95));
#659=CARTESIAN_POINT('',(3.5749999999852,0.,3.95));
#660=CARTESIAN_POINT('',(0.,0.,3.95));
#661=CARTESIAN_POINT('',(0.,0.,4.45));
#662=CARTESIAN_POINT('',(1.80000000000924,0.,4.45));
#663=CARTESIAN_POINT('',(0.,0.,4.45));
#664=CARTESIAN_POINT('',(2.55397459624432,0.,4.45));
#665=CARTESIAN_POINT('',(0.,0.,4.45));
#666=CARTESIAN_POINT('',(0.,0.,3.95));
#667=CARTESIAN_POINT('',(1.30000000000924,0.,3.95));
#668=CARTESIAN_POINT('',(0.,0.,3.95));
#669=CARTESIAN_POINT('',(0.,0.,4.2));
#670=CARTESIAN_POINT('',(2.98698729813654,0.,4.2));
#671=CARTESIAN_POINT('',(0.,0.,4.45));
#672=CARTESIAN_POINT('',(0.,0.,3.45));
#673=CARTESIAN_POINT('',(0.,0.,3.95));
#674=CARTESIAN_POINT('',(0.,0.,3.95));
#675=CARTESIAN_POINT('',(0.,0.,0.9));
#676=CARTESIAN_POINT('',(-1.11743562250952,-2.69772823494131,-6.));
#677=CARTESIAN_POINT('',(-0.892435622509524,-2.69772823494131,-6.));
#678=CARTESIAN_POINT('',(-1.11743562250952,-2.69772823494131,-6.));
#679=CARTESIAN_POINT('',(-1.11743562250952,-2.69772823494131,-6.));
#680=CARTESIAN_POINT('',(-1.11743562250952,2.69772823494131,-6.));
#681=CARTESIAN_POINT('',(-0.892435622509524,2.69772823494131,-6.));
#682=CARTESIAN_POINT('',(-1.11743562250952,2.69772823494131,-6.));
#683=CARTESIAN_POINT('',(-1.11743562250952,2.69772823494131,-6.));
#684=CARTESIAN_POINT('',(1.11743562250952,-2.69772823494131,-6.));
#685=CARTESIAN_POINT('',(0.892435622509524,-2.69772823494131,-6.));
#686=CARTESIAN_POINT('',(1.11743562250952,-2.69772823494131,-6.));
#687=CARTESIAN_POINT('',(1.11743562250952,-2.69772823494131,-6.));
#688=CARTESIAN_POINT('',(1.11743562250952,2.69772823494131,-6.));
#689=CARTESIAN_POINT('',(0.892435622509524,2.69772823494131,-6.));
#690=CARTESIAN_POINT('',(1.11743562250952,2.69772823494131,-6.));
#691=CARTESIAN_POINT('',(1.11743562250952,2.69772823494131,-6.));
#692=MECHANICAL_DESIGN_GEOMETRIC_PRESENTATION_REPRESENTATION('',(#47,#23,
#24,#25,#26,#27,#28,#29,#30,#31,#32,#33,#34,#35,#36,#37,#38,#39,#40,#41,
#42,#43,#44,#45),#693);
#693=(
GEOMETRIC_REPRESENTATION_CONTEXT(3)
GLOBAL_UNCERTAINTY_ASSIGNED_CONTEXT((#694))
GLOBAL_UNIT_ASSIGNED_CONTEXT((#700,#696,#695))
REPRESENTATION_CONTEXT('TO-39_Heimann','TOP_LEVEL_ASSEMBLY_PART')
);
#694=UNCERTAINTY_MEASURE_WITH_UNIT(LENGTH_MEASURE(2.E-5),#700,
'DISTANCE_ACCURACY_VALUE','Maximum Tolerance applied to model');
#695=(
NAMED_UNIT(*)
SI_UNIT($,.STERADIAN.)
SOLID_ANGLE_UNIT()
);
#696=(
CONVERSION_BASED_UNIT('DEGREE',#698)
NAMED_UNIT(#697)
PLANE_ANGLE_UNIT()
);
#697=DIMENSIONAL_EXPONENTS(0.,0.,0.,0.,0.,0.,0.);
#698=PLANE_ANGLE_MEASURE_WITH_UNIT(PLANE_ANGLE_MEASURE(0.0174532925),#699);
#699=(
NAMED_UNIT(*)
PLANE_ANGLE_UNIT()
SI_UNIT($,.RADIAN.)
);
#700=(
LENGTH_UNIT()
NAMED_UNIT(*)
SI_UNIT(.MILLI.,.METRE.)
);
ENDSEC;
END-ISO-10303-21;
