ISO-10303-21;
HEADER;
/* Generated by software containing ST-Developer
 * from STEP Tools, Inc. (www.steptools.com) 
 */

FILE_DESCRIPTION(
/* description */ (''),
/* implementation_level */ '2;1');

FILE_NAME(
/* name */ 'CPG-03-SMT-TR.step',
/* time_stamp */ '2024-04-05T10:02:48+02:00',
/* author */ (''),
/* organization */ (''),
/* preprocessor_version */ 'ST-DEVELOPER v20',
/* originating_system */ 'Autodesk Translation Framework v12.20.1.177',

/* authorisation */ '');

FILE_SCHEMA (('AUTOMOTIVE_DESIGN { 1 0 10303 214 3 1 1 }'));
ENDSEC;

DATA;
#10=MECHANICAL_DESIGN_GEOMETRIC_PRESENTATION_REPRESENTATION('',(#13),#247);
#11=SHAPE_REPRESENTATION_RELATIONSHIP('SRR','None',#254,#12);
#12=ADVANCED_BREP_SHAPE_REPRESENTATION('',(#14),#246);
#13=STYLED_ITEM('',(#264),#14);
#14=MANIFOLD_SOLID_BREP('Body1',#129);
#15=CONICAL_SURFACE('',#155,0.975,0.785398163397449);
#16=FACE_BOUND('',#47,.T.);
#17=FACE_BOUND('',#52,.T.);
#18=PLANE('',#154);
#19=PLANE('',#161);
#20=PLANE('',#162);
#21=TOROIDAL_SURFACE('',#148,0.525,0.225);
#22=LINE('',#217,#26);
#23=LINE('',#227,#27);
#24=LINE('',#234,#28);
#25=LINE('',#241,#29);
#26=VECTOR('',#173,0.5);
#27=VECTOR('',#186,0.75);
#28=VECTOR('',#195,0.975);
#29=VECTOR('',#204,1.);
#30=CYLINDRICAL_SURFACE('',#146,0.5);
#31=CYLINDRICAL_SURFACE('',#152,0.75);
#32=CYLINDRICAL_SURFACE('',#159,1.);
#33=FACE_OUTER_BOUND('',#42,.T.);
#34=FACE_OUTER_BOUND('',#43,.T.);
#35=FACE_OUTER_BOUND('',#44,.T.);
#36=FACE_OUTER_BOUND('',#45,.T.);
#37=FACE_OUTER_BOUND('',#46,.T.);
#38=FACE_OUTER_BOUND('',#48,.T.);
#39=FACE_OUTER_BOUND('',#49,.T.);
#40=FACE_OUTER_BOUND('',#50,.T.);
#41=FACE_OUTER_BOUND('',#51,.T.);
#42=EDGE_LOOP('',(#89,#90,#91));
#43=EDGE_LOOP('',(#92,#93,#94,#95));
#44=EDGE_LOOP('',(#96,#97,#98,#99));
#45=EDGE_LOOP('',(#100,#101,#102,#103));
#46=EDGE_LOOP('',(#104));
#47=EDGE_LOOP('',(#105));
#48=EDGE_LOOP('',(#106,#107,#108,#109,#110));
#49=EDGE_LOOP('',(#111,#112,#113,#114,#115));
#50=EDGE_LOOP('',(#116));
#51=EDGE_LOOP('',(#117));
#52=EDGE_LOOP('',(#118));
#53=CIRCLE('',#144,0.5);
#54=CIRCLE('',#145,0.5);
#55=CIRCLE('',#147,0.5);
#56=CIRCLE('',#149,0.525);
#57=CIRCLE('',#150,0.225);
#58=CIRCLE('',#151,0.75);
#59=CIRCLE('',#153,0.75);
#60=CIRCLE('',#156,0.95);
#61=CIRCLE('',#157,1.);
#62=CIRCLE('',#158,1.);
#63=CIRCLE('',#160,1.);
#64=VERTEX_POINT('',#211);
#65=VERTEX_POINT('',#213);
#66=VERTEX_POINT('',#216);
#67=VERTEX_POINT('',#220);
#68=VERTEX_POINT('',#222);
#69=VERTEX_POINT('',#226);
#70=VERTEX_POINT('',#231);
#71=VERTEX_POINT('',#233);
#72=VERTEX_POINT('',#235);
#73=VERTEX_POINT('',#239);
#74=EDGE_CURVE('',#64,#64,#53,.T.);
#75=EDGE_CURVE('',#65,#64,#54,.T.);
#76=EDGE_CURVE('',#64,#66,#22,.T.);
#77=EDGE_CURVE('',#66,#66,#55,.T.);
#78=EDGE_CURVE('',#67,#67,#56,.T.);
#79=EDGE_CURVE('',#67,#68,#57,.T.);
#80=EDGE_CURVE('',#68,#68,#58,.T.);
#81=EDGE_CURVE('',#68,#69,#23,.T.);
#82=EDGE_CURVE('',#69,#69,#59,.T.);
#83=EDGE_CURVE('',#70,#70,#60,.T.);
#84=EDGE_CURVE('',#70,#71,#24,.T.);
#85=EDGE_CURVE('',#71,#72,#61,.T.);
#86=EDGE_CURVE('',#72,#71,#62,.T.);
#87=EDGE_CURVE('',#73,#73,#63,.T.);
#88=EDGE_CURVE('',#73,#72,#25,.T.);
#89=ORIENTED_EDGE('',*,*,#74,.T.);
#90=ORIENTED_EDGE('',*,*,#75,.F.);
#91=ORIENTED_EDGE('',*,*,#75,.T.);
#92=ORIENTED_EDGE('',*,*,#74,.F.);
#93=ORIENTED_EDGE('',*,*,#76,.T.);
#94=ORIENTED_EDGE('',*,*,#77,.F.);
#95=ORIENTED_EDGE('',*,*,#76,.F.);
#96=ORIENTED_EDGE('',*,*,#78,.T.);
#97=ORIENTED_EDGE('',*,*,#79,.T.);
#98=ORIENTED_EDGE('',*,*,#80,.T.);
#99=ORIENTED_EDGE('',*,*,#79,.F.);
#100=ORIENTED_EDGE('',*,*,#80,.F.);
#101=ORIENTED_EDGE('',*,*,#81,.T.);
#102=ORIENTED_EDGE('',*,*,#82,.F.);
#103=ORIENTED_EDGE('',*,*,#81,.F.);
#104=ORIENTED_EDGE('',*,*,#78,.F.);
#105=ORIENTED_EDGE('',*,*,#77,.T.);
#106=ORIENTED_EDGE('',*,*,#83,.T.);
#107=ORIENTED_EDGE('',*,*,#84,.T.);
#108=ORIENTED_EDGE('',*,*,#85,.T.);
#109=ORIENTED_EDGE('',*,*,#86,.T.);
#110=ORIENTED_EDGE('',*,*,#84,.F.);
#111=ORIENTED_EDGE('',*,*,#87,.F.);
#112=ORIENTED_EDGE('',*,*,#88,.T.);
#113=ORIENTED_EDGE('',*,*,#85,.F.);
#114=ORIENTED_EDGE('',*,*,#86,.F.);
#115=ORIENTED_EDGE('',*,*,#88,.F.);
#116=ORIENTED_EDGE('',*,*,#83,.F.);
#117=ORIENTED_EDGE('',*,*,#87,.T.);
#118=ORIENTED_EDGE('',*,*,#82,.T.);
#119=SPHERICAL_SURFACE('',#143,0.5);
#120=ADVANCED_FACE('',(#33),#119,.T.);
#121=ADVANCED_FACE('',(#34),#30,.T.);
#122=ADVANCED_FACE('',(#35),#21,.T.);
#123=ADVANCED_FACE('',(#36),#31,.T.);
#124=ADVANCED_FACE('',(#37,#16),#18,.T.);
#125=ADVANCED_FACE('',(#38),#15,.T.);
#126=ADVANCED_FACE('',(#39),#32,.T.);
#127=ADVANCED_FACE('',(#40),#19,.T.);
#128=ADVANCED_FACE('',(#41,#17),#20,.T.);
#129=CLOSED_SHELL('',(#120,#121,#122,#123,#124,#125,#126,#127,#128));
#130=DERIVED_UNIT_ELEMENT(#132,1.);
#131=DERIVED_UNIT_ELEMENT(#249,-3.);
#132=(
MASS_UNIT()
NAMED_UNIT(*)
SI_UNIT(.KILO.,.GRAM.)
);
#133=DERIVED_UNIT((#130,#131));
#134=MEASURE_REPRESENTATION_ITEM('density measure',
POSITIVE_RATIO_MEASURE(7850.),#133);
#135=PROPERTY_DEFINITION_REPRESENTATION(#140,#137);
#136=PROPERTY_DEFINITION_REPRESENTATION(#141,#138);
#137=REPRESENTATION('material name',(#139),#246);
#138=REPRESENTATION('density',(#134),#246);
#139=DESCRIPTIVE_REPRESENTATION_ITEM('Steel','Steel');
#140=PROPERTY_DEFINITION('material property','material name',#256);
#141=PROPERTY_DEFINITION('material property','density of part',#256);
#142=AXIS2_PLACEMENT_3D('',#209,#163,#164);
#143=AXIS2_PLACEMENT_3D('',#210,#165,#166);
#144=AXIS2_PLACEMENT_3D('',#212,#167,#168);
#145=AXIS2_PLACEMENT_3D('',#214,#169,#170);
#146=AXIS2_PLACEMENT_3D('',#215,#171,#172);
#147=AXIS2_PLACEMENT_3D('',#218,#174,#175);
#148=AXIS2_PLACEMENT_3D('',#219,#176,#177);
#149=AXIS2_PLACEMENT_3D('',#221,#178,#179);
#150=AXIS2_PLACEMENT_3D('',#223,#180,#181);
#151=AXIS2_PLACEMENT_3D('',#224,#182,#183);
#152=AXIS2_PLACEMENT_3D('',#225,#184,#185);
#153=AXIS2_PLACEMENT_3D('',#228,#187,#188);
#154=AXIS2_PLACEMENT_3D('',#229,#189,#190);
#155=AXIS2_PLACEMENT_3D('',#230,#191,#192);
#156=AXIS2_PLACEMENT_3D('',#232,#193,#194);
#157=AXIS2_PLACEMENT_3D('',#236,#196,#197);
#158=AXIS2_PLACEMENT_3D('',#237,#198,#199);
#159=AXIS2_PLACEMENT_3D('',#238,#200,#201);
#160=AXIS2_PLACEMENT_3D('',#240,#202,#203);
#161=AXIS2_PLACEMENT_3D('',#242,#205,#206);
#162=AXIS2_PLACEMENT_3D('',#243,#207,#208);
#163=DIRECTION('axis',(0.,0.,1.));
#164=DIRECTION('refdir',(1.,0.,0.));
#165=DIRECTION('center_axis',(6.12323399573677E-17,0.,1.));
#166=DIRECTION('ref_axis',(1.,0.,0.));
#167=DIRECTION('center_axis',(0.,0.,1.));
#168=DIRECTION('ref_axis',(1.,0.,0.));
#169=DIRECTION('center_axis',(1.22464679914735E-16,-1.,0.));
#170=DIRECTION('ref_axis',(-1.,-1.22464679914735E-16,0.));
#171=DIRECTION('center_axis',(0.,0.,1.));
#172=DIRECTION('ref_axis',(1.,0.,0.));
#173=DIRECTION('',(0.,0.,-1.));
#174=DIRECTION('center_axis',(0.,0.,-1.));
#175=DIRECTION('ref_axis',(1.,0.,0.));
#176=DIRECTION('center_axis',(0.,0.,1.));
#177=DIRECTION('ref_axis',(1.,0.,0.));
#178=DIRECTION('center_axis',(0.,0.,-1.));
#179=DIRECTION('ref_axis',(-1.,1.22464679914735E-16,0.));
#180=DIRECTION('center_axis',(1.22464679914735E-16,-1.,0.));
#181=DIRECTION('ref_axis',(-1.,-1.22464679914735E-16,0.));
#182=DIRECTION('center_axis',(0.,0.,1.));
#183=DIRECTION('ref_axis',(-1.,1.22464679914735E-16,0.));
#184=DIRECTION('center_axis',(0.,0.,1.));
#185=DIRECTION('ref_axis',(1.,0.,0.));
#186=DIRECTION('',(0.,0.,-1.));
#187=DIRECTION('center_axis',(0.,0.,-1.));
#188=DIRECTION('ref_axis',(1.,0.,0.));
#189=DIRECTION('center_axis',(0.,0.,1.));
#190=DIRECTION('ref_axis',(1.,0.,0.));
#191=DIRECTION('center_axis',(0.,0.,1.));
#192=DIRECTION('ref_axis',(-1.,0.,0.));
#193=DIRECTION('center_axis',(0.,0.,1.));
#194=DIRECTION('ref_axis',(-1.,0.,0.));
#195=DIRECTION('',(0.707106781186548,-8.65956056235494E-17,0.707106781186547));
#196=DIRECTION('center_axis',(0.,0.,-1.));
#197=DIRECTION('ref_axis',(-1.,0.,0.));
#198=DIRECTION('center_axis',(0.,0.,-1.));
#199=DIRECTION('ref_axis',(-1.,0.,0.));
#200=DIRECTION('center_axis',(0.,0.,1.));
#201=DIRECTION('ref_axis',(1.,0.,0.));
#202=DIRECTION('center_axis',(0.,0.,1.));
#203=DIRECTION('ref_axis',(1.,0.,0.));
#204=DIRECTION('',(0.,0.,-1.));
#205=DIRECTION('center_axis',(0.,0.,-1.));
#206=DIRECTION('ref_axis',(-1.,0.,0.));
#207=DIRECTION('center_axis',(0.,0.,1.));
#208=DIRECTION('ref_axis',(1.,0.,0.));
#209=CARTESIAN_POINT('',(0.,0.,0.));
#210=CARTESIAN_POINT('Origin',(0.,0.,2.8));
#211=CARTESIAN_POINT('',(-0.5,-6.12323399573677E-17,2.8));
#212=CARTESIAN_POINT('Origin',(0.,0.,2.8));
#213=CARTESIAN_POINT('',(-3.06161699786838E-17,-3.74939945665464E-33,3.3));
#214=CARTESIAN_POINT('Origin',(0.,0.,2.8));
#215=CARTESIAN_POINT('Origin',(0.,0.,2.65));
#216=CARTESIAN_POINT('',(-0.5,-6.12323399573677E-17,2.));
#217=CARTESIAN_POINT('',(-0.5,-6.12323399573677E-17,2.65));
#218=CARTESIAN_POINT('Origin',(0.,0.,2.));
#219=CARTESIAN_POINT('Origin',(0.,0.,1.775));
#220=CARTESIAN_POINT('',(-0.525,-6.4293956955236E-17,2.));
#221=CARTESIAN_POINT('Origin',(0.,0.,2.));
#222=CARTESIAN_POINT('',(-0.75,-9.18485099360515E-17,1.775));
#223=CARTESIAN_POINT('Origin',(-0.525,-6.4293956955236E-17,1.775));
#224=CARTESIAN_POINT('Origin',(0.,0.,1.775));
#225=CARTESIAN_POINT('Origin',(0.,0.,1.2));
#226=CARTESIAN_POINT('',(-0.75,-9.18485099360515E-17,0.4));
#227=CARTESIAN_POINT('',(-0.75,-9.18485099360515E-17,1.2));
#228=CARTESIAN_POINT('Origin',(0.,0.,0.4));
#229=CARTESIAN_POINT('Origin',(0.,0.,2.));
#230=CARTESIAN_POINT('Origin',(0.,0.,0.025));
#231=CARTESIAN_POINT('',(0.95,1.16341445918999E-16,0.));
#232=CARTESIAN_POINT('Origin',(0.,0.,0.));
#233=CARTESIAN_POINT('',(1.,-1.22464679914735E-16,0.05));
#234=CARTESIAN_POINT('',(0.975,-1.19403062916867E-16,0.025));
#235=CARTESIAN_POINT('',(-1.,-1.22464679914735E-16,0.05));
#236=CARTESIAN_POINT('Origin',(0.,0.,0.05));
#237=CARTESIAN_POINT('Origin',(0.,0.,0.05));
#238=CARTESIAN_POINT('Origin',(0.,0.,0.2));
#239=CARTESIAN_POINT('',(-1.,-1.22464679914735E-16,0.4));
#240=CARTESIAN_POINT('Origin',(0.,0.,0.4));
#241=CARTESIAN_POINT('',(-1.,-1.22464679914735E-16,0.2));
#242=CARTESIAN_POINT('Origin',(0.,0.,0.));
#243=CARTESIAN_POINT('Origin',(0.,0.,0.4));
#244=UNCERTAINTY_MEASURE_WITH_UNIT(LENGTH_MEASURE(0.01),#248,
'DISTANCE_ACCURACY_VALUE',
'Maximum model space distance between geometric entities at asserted c
onnectivities');
#245=UNCERTAINTY_MEASURE_WITH_UNIT(LENGTH_MEASURE(0.01),#248,
'DISTANCE_ACCURACY_VALUE',
'Maximum model space distance between geometric entities at asserted c
onnectivities');
#246=(
GEOMETRIC_REPRESENTATION_CONTEXT(3)
GLOBAL_UNCERTAINTY_ASSIGNED_CONTEXT((#244))
GLOBAL_UNIT_ASSIGNED_CONTEXT((#248,#250,#251))
REPRESENTATION_CONTEXT('','3D')
);
#247=(
GEOMETRIC_REPRESENTATION_CONTEXT(3)
GLOBAL_UNCERTAINTY_ASSIGNED_CONTEXT((#245))
GLOBAL_UNIT_ASSIGNED_CONTEXT((#248,#250,#251))
REPRESENTATION_CONTEXT('','3D')
);
#248=(
LENGTH_UNIT()
NAMED_UNIT(*)
SI_UNIT(.MILLI.,.METRE.)
);
#249=(
LENGTH_UNIT()
NAMED_UNIT(*)
SI_UNIT($,.METRE.)
);
#250=(
NAMED_UNIT(*)
PLANE_ANGLE_UNIT()
SI_UNIT($,.RADIAN.)
);
#251=(
NAMED_UNIT(*)
SI_UNIT($,.STERADIAN.)
SOLID_ANGLE_UNIT()
);
#252=SHAPE_DEFINITION_REPRESENTATION(#253,#254);
#253=PRODUCT_DEFINITION_SHAPE('',$,#256);
#254=SHAPE_REPRESENTATION('',(#142),#246);
#255=PRODUCT_DEFINITION_CONTEXT('part definition',#260,'design');
#256=PRODUCT_DEFINITION('CPG-03-SMT-TR','CPG-03-SMT-TR v2',#257,#255);
#257=PRODUCT_DEFINITION_FORMATION('',$,#262);
#258=PRODUCT_RELATED_PRODUCT_CATEGORY('CPG-03-SMT-TR v2',
'CPG-03-SMT-TR v2',(#262));
#259=APPLICATION_PROTOCOL_DEFINITION('international standard',
'automotive_design',2009,#260);
#260=APPLICATION_CONTEXT(
'Core Data for Automotive Mechanical Design Process');
#261=PRODUCT_CONTEXT('part definition',#260,'mechanical');
#262=PRODUCT('CPG-03-SMT-TR','CPG-03-SMT-TR v2',$,(#261));
#263=PRESENTATION_STYLE_ASSIGNMENT((#265));
#264=PRESENTATION_STYLE_ASSIGNMENT((#266));
#265=SURFACE_STYLE_USAGE(.BOTH.,#267);
#266=SURFACE_STYLE_USAGE(.BOTH.,#268);
#267=SURFACE_SIDE_STYLE('',(#269));
#268=SURFACE_SIDE_STYLE('',(#270));
#269=SURFACE_STYLE_FILL_AREA(#271);
#270=SURFACE_STYLE_FILL_AREA(#272);
#271=FILL_AREA_STYLE('Steel - Satin',(#273));
#272=FILL_AREA_STYLE('Gold - Polished',(#274));
#273=FILL_AREA_STYLE_COLOUR('Steel - Satin',#275);
#274=FILL_AREA_STYLE_COLOUR('Gold - Polished',#276);
#275=COLOUR_RGB('Steel - Satin',0.627450980392157,0.627450980392157,0.627450980392157);
#276=COLOUR_RGB('Gold - Polished',0.956862745098039,0.898039215686275,0.654901960784314);
ENDSEC;
END-ISO-10303-21;
