  0
SECTION
  2
HEADER
  9
$ACADVER
  1
AC1009
  9
$DWGCODEPAGE
  3
ansi_1252
  9
$INSBASE
 10
0.0
 20
0.0
 30
0.0
  9
$EXTMIN
 10
-0.5
 20
-0.5
 30
-0.5
  9
$EXTMAX
 10
5.0
 20
5.0
 30
5.0
  9
$LIMMIN
 10
-0.5
 20
-0.5
  9
$LIMMAX
 10
5.0
 20
5.0
  9
$ORTHOMODE
 70
     0
  9
$REGENMODE
 70
     1
  9
$FILLMODE
 70
     1
  9
$QTEXTMODE
 70
     0
  9
$MIRRTEXT
 70
     1
  9
$DRAGMODE
 70
     2
  9
$LTSCALE
 40
1.0
  9
$OSMODE
 70
    37
  9
$ATTMODE
 70
     1
  9
$TEXTSIZE
 40
0.2
  9
$TRACEWID
 40
0.05
  9
$TEXTSTYLE
  7
STANDARD
  9
$CLAYER
  8
0
  9
$CELTYPE
  6
BYLAYER
  9
$CECOLOR
 62
   256
  9
$DIMSCALE
 40
1.0
  9
$DIMASZ
 40
0.18
  9
$DIMEXO
 40
0.0625
  9
$DIMDLI
 40
0.38
  9
$DIMRND
 40
0.0
  9
$DIMDLE
 40
0.0
  9
$DIMEXE
 40
0.18
  9
$DIMTP
 40
0.0
  9
$DIMTM
 40
0.0
  9
$DIMTXT
 40
0.18
  9
$DIMCEN
 40
0.09
  9
$DIMTSZ
 40
0.0
  9
$DIMTOL
 70
     0
  9
$DIMLIM
 70
     0
  9
$DIMTIH
 70
     1
  9
$DIMTOH
 70
     1
  9
$DIMSE1
 70
     0
  9
$DIMSE2
 70
     0
  9
$DIMTAD
 70
     0
  9
$DIMZIN
 70
     0
  9
$DIMBLK
  1

  9
$DIMASO
 70
     1
  9
$DIMSHO
 70
     1
  9
$DIMPOST
  1

  9
$DIMAPOST
  1

  9
$DIMALT
 70
     0
  9
$DIMALTD
 70
     2
  9
$DIMALTF
 40
25.4
  9
$DIMLFAC
 40
1.0
  9
$DIMTOFL
 70
     0
  9
$DIMTVP
 40
0.0
  9
$DIMTIX
 70
     0
  9
$DIMSOXD
 70
     0
  9
$DIMSAH
 70
     0
  9
$DIMBLK1
  1

  9
$DIMBLK2
  1

  9
$DIMSTYLE
  2
STANDARD
  9
$DIMCLRD
 70
     0
  9
$DIMCLRE
 70
     0
  9
$DIMCLRT
 70
     0
  9
$DIMTFAC
 40
1.0
  9
$DIMGAP
 40
0.09
  9
$LUNITS
 70
     2
  9
$LUPREC
 70
     4
  9
$SKETCHINC
 40
0.1
  9
$FILLETRAD
 40
0.0
  9
$AUNITS
 70
     0
  9
$AUPREC
 70
     0
  9
$MENU
  1
.
  9
$ELEVATION
 40
0.0
  9
$PELEVATION
 40
0.0
  9
$THICKNESS
 40
0.0
  9
$LIMCHECK
 70
     0
  9
$CHAMFERA
 40
0.0
  9
$CHAMFERB
 40
0.0
  9
$SKPOLY
 70
     0
  9
$TDCREATE
 40
2460465.938687315
  9
$TDUPDATE
 40
2460465.938687361
  9
$TDINDWG
 40
0.0000000116
  9
$TDUSRTIMER
 40
0.0000000116
  9
$USRTIMER
 70
     1
  9
$ANGBASE
 50
0.0
  9
$ANGDIR
 70
     0
  9
$PDMODE
 70
     0
  9
$PDSIZE
 40
0.0
  9
$PLINEWID
 40
0.0
  9
$COORDS
 70
     1
  9
$SPLFRAME
 70
     0
  9
$SPLINETYPE
 70
     6
  9
$SPLINESEGS
 70
     8
  9
$ATTDIA
 70
     0
  9
$ATTREQ
 70
     1
  9
$HANDLING
 70
     1
  9
$HANDSEED
  5
116
  9
$SURFTAB1
 70
     6
  9
$SURFTAB2
 70
     6
  9
$SURFTYPE
 70
     6
  9
$SURFU
 70
     6
  9
$SURFV
 70
     6
  9
$UCSNAME
  2

  9
$UCSORG
 10
0.0
 20
0.0
 30
0.0
  9
$UCSXDIR
 10
1.0
 20
0.0
 30
0.0
  9
$UCSYDIR
 10
0.0
 20
1.0
 30
0.0
  9
$PUCSNAME
  2

  9
$PUCSORG
 10
0.0
 20
0.0
 30
0.0
  9
$PUCSXDIR
 10
1.0
 20
0.0
 30
0.0
  9
$PUCSYDIR
 10
0.0
 20
1.0
 30
0.0
  9
$USERI1
 70
     0
  9
$USERI2
 70
     0
  9
$USERI3
 70
     0
  9
$USERI4
 70
     0
  9
$USERI5
 70
     0
  9
$USERR1
 40
0.0
  9
$USERR2
 40
0.0
  9
$USERR3
 40
0.0
  9
$USERR4
 40
0.0
  9
$USERR5
 40
0.0
  9
$WORLDVIEW
 70
     1
  9
$SHADEDGE
 70
     3
  9
$SHADEDIF
 70
    70
  9
$TILEMODE
 70
     1
  9
$MAXACTVP
 70
    64
  9
$PLIMCHECK
 70
     0
  9
$PEXTMIN
 10
-0.5
 20
-0.5
 30
-0.5
  9
$PEXTMAX
 10
5.0
 20
5.0
 30
5.0
  9
$PLIMMIN
 10
-0.5
 20
-0.5
  9
$PLIMMAX
 10
5.0
 20
5.0
  9
$UNITMODE
 70
     0
  9
$VISRETAIN
 70
     1
  9
$PLINEGEN
 70
     0
  9
$PSLTSCALE
 70
     1
  0
ENDSEC
  0
SECTION
  2
TABLES
  0
TABLE
  2
VPORT
 70
    16
  0
VPORT
  2
*ACTIVE
 70
     0
 10
0.0
 20
0.0
 11
1.0
 21
1.0
 12
59.078366
 22
-24.662094
 13
0.0
 23
0.0
 14
0.5
 24
0.5
 15
0.5
 25
0.5
 16
0.0
 26
0.0
 36
1.0
 17
0.0
 27
0.0
 37
0.0
 40
215.10625
 41
0.082549
 42
50.0
 43
301.171878
 44
-301.171878
 50
0.0
 51
0.0
 71
     0
 72
   100
 73
     1
 74
     3
 75
     0
 76
     0
 77
     0
 78
     0
  0
VPORT
  2
L1
 70
     0
 10
0.0
 20
0.0
 11
1.0
 21
1.0
 12
59.078366
 22
-24.662094
 13
0.0
 23
0.0
 14
0.5
 24
0.5
 15
0.5
 25
0.5
 16
0.0
 26
0.0
 36
1.0
 17
0.0
 27
0.0
 37
0.0
 40
215.10625
 41
0.082549
 42
50.0
 43
301.171878
 44
-301.171878
 50
0.0
 51
0.0
 71
     0
 72
   100
 73
     1
 74
     3
 75
     0
 76
     0
 77
     0
 78
     0
  0
VPORT
  2
L2
 70
     0
 10
0.0
 20
0.0
 11
0.5
 21
1.0
 12
0.0
 22
0.0
 13
0.0
 23
0.0
 14
0.5
 24
0.5
 15
0.5
 25
0.5
 16
0.0
 26
-1.0
 36
0.0
 17
0.0
 27
0.0
 37
0.0
 40
1445.340506
 41
0.012286
 42
50.0
 43
746.421448
 44
-746.421448
 50
0.0
 51
0.0
 71
     0
 72
   100
 73
     1
 74
     3
 75
     0
 76
     0
 77
     0
 78
     0
  0
VPORT
  2
L2
 70
     0
 10
0.5
 20
0.0
 11
1.0
 21
1.0
 12
0.0
 22
0.0
 13
0.0
 23
0.0
 14
0.5
 24
0.5
 15
0.5
 25
0.5
 16
1.0
 26
0.0
 36
0.0
 17
0.0
 27
0.0
 37
0.0
 40
1445.340506
 41
0.012286
 42
50.0
 43
730.629844
 44
-730.629844
 50
0.0
 51
0.0
 71
     0
 72
   100
 73
     1
 74
     3
 75
     0
 76
     0
 77
     0
 78
     0
  0
VPORT
  2
L3
 70
     0
 10
0.0
 20
0.5
 11
1.0
 21
1.0
 12
59.078366
 22
-24.662094
 13
0.0
 23
0.0
 14
0.5
 24
0.5
 15
0.5
 25
0.5
 16
0.0
 26
0.0
 36
1.0
 17
0.0
 27
0.0
 37
0.0
 40
215.10625
 41
0.082549
 42
50.0
 43
301.171878
 44
-301.171878
 50
0.0
 51
0.0
 71
     0
 72
   100
 73
     1
 74
     3
 75
     0
 76
     0
 77
     0
 78
     0
  0
VPORT
  2
L3
 70
     0
 10
0.0
 20
0.0
 11
1.0
 21
0.5
 12
0.0
 22
0.0
 13
0.0
 23
0.0
 14
0.5
 24
0.5
 15
0.5
 25
0.5
 16
0.0
 26
-1.0
 36
0.0
 17
0.0
 27
0.0
 37
0.0
 40
1445.340506
 41
0.012286
 42
50.0
 43
746.421448
 44
-746.421448
 50
0.0
 51
0.0
 71
     0
 72
   100
 73
     1
 74
     3
 75
     0
 76
     0
 77
     0
 78
     0
  0
VPORT
  2
L4
 70
     0
 10
0.0
 20
0.5
 11
0.5
 21
1.0
 12
59.078366
 22
-24.662094
 13
0.0
 23
0.0
 14
0.5
 24
0.5
 15
0.5
 25
0.5
 16
0.0
 26
0.0
 36
1.0
 17
0.0
 27
0.0
 37
0.0
 40
215.10625
 41
0.082549
 42
50.0
 43
301.171878
 44
-301.171878
 50
0.0
 51
0.0
 71
     0
 72
   100
 73
     1
 74
     3
 75
     0
 76
     0
 77
     0
 78
     0
  0
VPORT
  2
L4
 70
     0
 10
0.0
 20
0.0
 11
0.5
 21
0.5
 12
0.0
 22
0.0
 13
0.0
 23
0.0
 14
0.5
 24
0.5
 15
0.5
 25
0.5
 16
0.0
 26
-1.0
 36
0.0
 17
0.0
 27
0.0
 37
0.0
 40
1445.340506
 41
0.012286
 42
50.0
 43
746.421448
 44
-746.421448
 50
0.0
 51
0.0
 71
     0
 72
   100
 73
     1
 74
     3
 75
     0
 76
     0
 77
     0
 78
     0
  0
VPORT
  2
L4
 70
     0
 10
0.5
 20
0.0
 11
1.0
 21
0.5
 12
0.0
 22
0.0
 13
0.0
 23
0.0
 14
0.5
 24
0.5
 15
0.5
 25
0.5
 16
1.0
 26
0.0
 36
0.0
 17
0.0
 27
0.0
 37
0.0
 40
1445.340506
 41
0.012286
 42
50.0
 43
730.629844
 44
-730.629844
 50
0.0
 51
0.0
 71
     0
 72
   100
 73
     1
 74
     3
 75
     0
 76
     0
 77
     0
 78
     0
  0
VPORT
  2
L4
 70
     0
 10
0.5
 20
0.5
 11
1.0
 21
1.0
 12
0.0
 22
0.0
 13
0.0
 23
0.0
 14
0.5
 24
0.5
 15
0.5
 25
0.5
 16
0.5773502691896258
 26
-0.5773502691896258
 36
0.5773502691896258
 17
0.0
 27
0.0
 37
0.0
 40
1420.4505
 41
0.012501
 42
50.0
 43
740.094967
 44
-740.094967
 50
0.0
 51
0.0
 71
     0
 72
   100
 73
     1
 74
     3
 75
     0
 76
     0
 77
     0
 78
     0
  0
VPORT
  2
L6
 70
     0
 10
0.0
 20
0.5
 11
0.333333
 21
1.0
 12
0.0
 22
0.0
 13
0.0
 23
0.0
 14
0.5
 24
0.5
 15
0.5
 25
0.5
 16
0.7188730927569433
 26
-0.5850486126764433
 36
0.3754192287502549
 17
0.0
 27
0.0
 37
0.0
 40
1499.376606
 41
0.011843
 42
50.0
 43
776.250881
 44
-776.250881
 50
0.0
 51
0.0
 71
     0
 72
   100
 73
     1
 74
     3
 75
     0
 76
     0
 77
     0
 78
     0
  0
VPORT
  2
L6
 70
     0
 10
0.0
 20
0.0
 11
0.333333
 21
0.5
 12
0.0
 22
0.0
 13
0.0
 23
0.0
 14
0.5
 24
0.5
 15
0.5
 25
0.5
 16
-1.0
 26
0.0
 36
0.0
 17
0.0
 27
0.0
 37
0.0
 40
1445.340506
 41
0.012286
 42
50.0
 43
730.629844
 44
-730.629844
 50
0.0
 51
0.0
 71
     0
 72
   100
 73
     1
 74
     3
 75
     0
 76
     0
 77
     0
 78
     0
  0
VPORT
  2
L6
 70
     0
 10
0.333333
 20
0.5
 11
0.666667
 21
1.0
 12
59.078366
 22
-24.662094
 13
0.0
 23
0.0
 14
0.5
 24
0.5
 15
0.5
 25
0.5
 16
0.0
 26
0.0
 36
1.0
 17
0.0
 27
0.0
 37
0.0
 40
215.10625
 41
0.082549
 42
50.0
 43
301.171878
 44
-301.171878
 50
0.0
 51
0.0
 71
     0
 72
   100
 73
     1
 74
     3
 75
     0
 76
     0
 77
     0
 78
     0
  0
VPORT
  2
L6
 70
     0
 10
0.333333
 20
0.0
 11
0.666667
 21
0.5
 12
0.0
 22
0.0
 13
0.0
 23
0.0
 14
0.5
 24
0.5
 15
0.5
 25
0.5
 16
0.0
 26
-1.0
 36
0.0
 17
0.0
 27
0.0
 37
0.0
 40
1445.340506
 41
0.012286
 42
50.0
 43
746.421448
 44
-746.421448
 50
0.0
 51
0.0
 71
     0
 72
   100
 73
     1
 74
     3
 75
     0
 76
     0
 77
     0
 78
     0
  0
VPORT
  2
L6
 70
     0
 10
0.666667
 20
0.5
 11
1.0
 21
1.0
 12
0.0
 22
0.0
 13
0.0
 23
0.0
 14
0.5
 24
0.5
 15
0.5
 25
0.5
 16
0.5773502691896258
 26
-0.5773502691896258
 36
0.5773502691896258
 17
0.0
 27
0.0
 37
0.0
 40
1420.4505
 41
0.012501
 42
50.0
 43
740.094967
 44
-740.094967
 50
0.0
 51
0.0
 71
     0
 72
   100
 73
     1
 74
     3
 75
     0
 76
     0
 77
     0
 78
     0
  0
VPORT
  2
L6
 70
     0
 10
0.666667
 20
0.0
 11
1.0
 21
0.5
 12
0.0
 22
0.0
 13
0.0
 23
0.0
 14
0.5
 24
0.5
 15
0.5
 25
0.5
 16
1.0
 26
0.0
 36
0.0
 17
0.0
 27
0.0
 37
0.0
 40
1445.340506
 41
0.012286
 42
50.0
 43
730.629844
 44
-730.629844
 50
0.0
 51
0.0
 71
     0
 72
   100
 73
     1
 74
     3
 75
     0
 76
     0
 77
     0
 78
     0
  0
ENDTAB
  0
TABLE
  2
LTYPE
 70
    10
  0
LTYPE
  2
CONTINUOUS
 70
     0
  3
Solid line
 72
    65
 73
     0
 40
0.0
  0
LTYPE
  2
ACAD_ISO04W100
 70
     0
  3
ISO long-dash dot ____ . ____ . ____ . ____ . _
 72
    65
 73
     4
 40
30.0
 49
24.0
 49
-3.0
 49
0.0
 49
-3.0
  0
LTYPE
  2
ACAD_ISO05W100
 70
     0
  3
ISO long-dash double-dot ____ .. ____ .. ____ . 
 72
    65
 73
     6
 40
33.0
 49
24.0
 49
-3.0
 49
0.0
 49
-3.0
 49
0.0
 49
-3.0
  0
LTYPE
  2
ACAD_ISO06W100
 70
     0
  3
ISO long-dash triple-dot ____ ... ____ ... ____
 72
    65
 73
     8
 40
36.0
 49
24.0
 49
-3.0
 49
0.0
 49
-3.0
 49
0.0
 49
-3.0
 49
0.0
 49
-3.0
  0
LTYPE
  2
ACAD_ISO09W100
 70
     0
  3
ISO long-dash double-short-dash ____ __ __ ____
 72
    65
 73
     6
 40
45.0
 49
24.0
 49
-3.0
 49
6.0
 49
-3.0
 49
6.0
 49
-3.0
  0
LTYPE
  2
CENTER
 70
     0
  3
____ _ ____ _ ____ _ ____
 72
    65
 73
     4
 40
47.4
 49
22.0
 49
-8.5
 49
8.5
 49
-8.5
  0
LTYPE
  2
DASHDOT
 70
     0
  3
_._._._._._._._._._._._._._._._.
 72
    65
 73
     4
 40
70.0
 49
31.0
 49
-13.0
 49
13.0
 49
-13.0
  0
LTYPE
  2
DASHED
 70
     0
  3
__ __ __ __ __ __ __ __ __
 72
    65
 73
     2
 40
25.72
 49
12.86
 49
-12.86
  0
LTYPE
  2
DOT
 70
     0
  3
.........................
 72
    65
 73
     2
 40
10.0
 49
0.0
 49
-10.0
  0
LTYPE
  2
PHANTOM
 70
     0
  3
____ _ _ ____ _ _ _____ _ _ ____
 72
    65
 73
     6
 40
50.5
 49
18.0
 49
-6.5
 49
6.5
 49
-6.5
 49
6.5
 49
-6.5
  0
ENDTAB
  0
TABLE
  2
LAYER
 70
     2
  0
LAYER
  2
0
 70
     0
 62
     7
  6
CONTINUOUS
  0
LAYER
  2
1
 70
     0
 62
     7
  6
CONTINUOUS
  0
ENDTAB
  0
TABLE
  2
STYLE
 70
     1
  0
STYLE
  2
STANDARD
 70
     0
 40
0.0
 41
1.0
 50
0.0
 71
     0
 42
0.2
  3
txt
  4

  0
ENDTAB
  0
TABLE
  2
VIEW
 70
     8
  0
VIEW
  2
TOP
 70
     0
 40
215.10625
 10
59.078366
 20
-24.662094
 41
373.591667
 11
0.0
 21
0.0
 31
1.0
 12
0.0
 22
0.0
 32
0.0
 42
50.0
 43
301.171878
 44
-301.171878
 50
0.0
 71
     0
  0
VIEW
  2
FRONT
 70
     0
 40
1445.340506
 10
0.0
 20
0.0
 41
373.591667
 11
0.0
 21
-1.0
 31
0.0
 12
0.0
 22
0.0
 32
0.0
 42
50.0
 43
746.421448
 44
-746.421448
 50
0.0
 71
     0
  0
VIEW
  2
RIGHT
 70
     0
 40
1445.340506
 10
0.0
 20
0.0
 41
215.10625
 11
1.0
 21
0.0
 31
0.0
 12
0.0
 22
0.0
 32
0.0
 42
50.0
 43
730.629844
 44
-730.629844
 50
0.0
 71
     0
  0
VIEW
  2
BACK
 70
     0
 40
1445.340506
 10
0.0
 20
0.0
 41
373.591667
 11
0.0
 21
1.0
 31
0.0
 12
0.0
 22
0.0
 32
0.0
 42
50.0
 43
746.421448
 44
-746.421448
 50
0.0
 71
     0
  0
VIEW
  2
BOTTOM
 70
     0
 40
215.10625
 10
0.0
 20
0.0
 41
373.591667
 11
0.0
 21
0.0
 31
-1.0
 12
0.0
 22
0.0
 32
0.0
 42
50.0
 43
722.670253
 44
-722.670253
 50
180.0
 71
     0
  0
VIEW
  2
LEFT
 70
     0
 40
1445.340506
 10
0.0
 20
0.0
 41
215.10625
 11
-1.0
 21
0.0
 31
0.0
 12
0.0
 22
0.0
 32
0.0
 42
50.0
 43
730.629844
 44
-730.629844
 50
0.0
 71
     0
  0
VIEW
  2
ISOMETRIC
 70
     0
 40
1420.4505
 10
0.0
 20
0.0
 41
416.272289
 11
0.5773502691896258
 21
-0.5773502691896258
 31
0.5773502691896258
 12
0.0
 22
0.0
 32
0.0
 42
50.0
 43
740.094967
 44
-740.094967
 50
0.0
 71
     0
  0
VIEW
  2
TRIMETRIC
 70
     0
 40
1499.376606
 10
0.0
 20
0.0
 41
402.655578
 11
0.7188730927569433
 21
-0.5850486126764433
 31
0.3754192287502549
 12
0.0
 22
0.0
 32
0.0
 42
50.0
 43
776.250881
 44
-776.250881
 50
0.0
 71
     0
  0
ENDTAB
  0
TABLE
  2
UCS
 70
     0
  0
ENDTAB
  0
TABLE
  2
APPID
 70
     1
  0
APPID
  2
ACAD
 70
     0
  0
ENDTAB
  0
TABLE
  2
DIMSTYLE
 70
     1
  0
DIMSTYLE
  2
STANDARD
 70
     0
  3

  4

  5

  6

  7

 40
1.0
 41
0.18
 42
0.0625
 43
0.38
 44
0.18
 45
0.0
 46
0.0
 47
0.0
 48
0.0
140
0.18
141
0.09
142
0.0
143
25.4
144
1.0
145
0.0
146
1.0
147
0.09
 71
     0
 72
     0
 73
     1
 74
     1
 75
     0
 76
     0
 77
     0
 78
     0
170
     0
171
     2
172
     0
173
     0
174
     0
175
     0
176
     0
177
     0
178
     0
  0
ENDTAB
  0
ENDSEC
  0
SECTION
  2
BLOCKS
  0
BLOCK
  8
0
  2
$MODEL_SPACE
 70
     0
 10
0.0
 20
0.0
 30
0.0
  3
$MODEL_SPACE
  1

  0
ENDBLK
  5
21
  8
0
  0
BLOCK
 67
     1
  8
0
  2
$PAPER_SPACE
 70
     0
 10
0.0
 20
0.0
 30
0.0
  3
$PAPER_SPACE
  1

  0
ENDBLK
  5
1D
 67
     1
  8
0
  0
ENDSEC
  0
SECTION
  2
ENTITIES
  0
LINE
  5
67
  8
1
  6
CONTINUOUS
 62
   150
 10
-0.321634
 20
-45.4
 30
0.0
 11
-0.321634
 21
-7.0
 31
0.0
  0
LINE
  5
69
  8
1
  6
CONTINUOUS
 62
   150
 10
134.163437
 20
-6.22515
 30
0.0
 11
143.363437
 21
-8.52515
 31
0.0
  0
LINE
  5
6A
  8
1
  6
CONTINUOUS
 62
   150
 10
-11.521634
 20
-5.0
 30
0.0
 11
-7.321634
 21
-5.0
 31
0.0
  0
LINE
  5
6B
  8
1
  6
CONTINUOUS
 62
   150
 10
73.878366
 20
-7.0
 30
0.0
 11
73.878366
 21
-45.4
 31
0.0
  0
LINE
  5
6C
  8
1
  6
CONTINUOUS
 62
   150
 10
-20.521634
 20
-47.4
 30
0.0
 11
-24.721634
 21
-47.4
 31
0.0
  0
LINE
  5
6D
  8
1
  6
CONTINUOUS
 62
   173
 10
-31.721634
 20
-47.4
 30
0.0
 11
-31.721634
 21
-7.712919
 31
0.0
  0
LINE
  5
6E
  8
1
  6
CONTINUOUS
 62
   150
 10
113.478366
 20
-7.0
 30
0.0
 11
113.478366
 21
-45.4
 31
0.0
  0
LINE
  5
6F
  8
1
  6
CONTINUOUS
 62
   150
 10
41.278366
 20
-5.0
 30
0.0
 11
45.478366
 21
-5.0
 31
0.0
  0
LINE
  5
70
  8
1
  6
CONTINUOUS
 62
   150
 10
58.678366
 20
-47.4
 30
0.0
 11
54.478366
 21
-47.4
 31
0.0
  0
LINE
  5
71
  8
1
  6
CONTINUOUS
 62
   173
 10
109.475
 20
0.0
 30
0.0
 11
129.262838
 21
0.0
 31
0.0
  0
LINE
  5
72
  8
1
  6
CONTINUOUS
 62
   150
 10
-21.742356
 20
-5.0
 30
0.0
 11
-20.521634
 21
-5.0
 31
0.0
  0
LINE
  5
73
  8
1
  6
CONTINUOUS
 62
   150
 10
39.278366
 20
-45.4
 30
0.0
 11
39.278366
 21
-7.0
 31
0.0
  0
LINE
  5
74
  8
1
  6
CONTINUOUS
 62
   150
 10
105.278366
 20
-45.4
 30
0.0
 11
105.278366
 21
-7.0
 31
0.0
  0
LINE
  5
75
  8
1
  6
CONTINUOUS
 62
   150
 10
-13.521634
 20
-45.4
 30
0.0
 11
-13.521634
 21
-7.0
 31
0.0
  0
LINE
  5
76
  8
1
  6
CONTINUOUS
 62
   150
 10
87.078366
 20
-7.0
 30
0.0
 11
87.078366
 21
-45.4
 31
0.0
  0
LINE
  5
77
  8
1
  6
CONTINUOUS
 62
   150
 10
144.878366
 20
-10.465435
 30
0.0
 11
144.878366
 21
-45.4
 31
0.0
  0
LINE
  5
78
  8
1
  6
CONTINUOUS
 62
   150
 10
65.678366
 20
-45.4
 30
0.0
 11
65.678366
 21
-7.0
 31
0.0
  0
LINE
  5
79
  8
1
  6
CONTINUOUS
 62
   150
 10
12.878366
 20
-45.4
 30
0.0
 11
12.878366
 21
-7.0
 31
0.0
  0
LINE
  5
7A
  8
1
  6
CONTINUOUS
 62
   150
 10
34.278366
 20
-7.0
 30
0.0
 11
34.278366
 21
-45.4
 31
0.0
  0
LINE
  5
7B
  8
1
  6
CONTINUOUS
 62
   150
 10
107.278366
 20
-5.0
 30
0.0
 11
111.478366
 21
-5.0
 31
0.0
  0
LINE
  5
7C
  8
1
  6
CONTINUOUS
 62
   173
 10
149.878366
 20
-8.903882
 30
0.0
 11
149.878366
 21
-47.4
 31
0.0
  0
LINE
  5
7D
  8
1
  6
CONTINUOUS
 62
   150
 10
-7.321634
 20
-47.4
 30
0.0
 11
-11.521634
 21
-47.4
 31
0.0
  0
LINE
  5
7E
  8
1
  6
CONTINUOUS
 62
   173
 10
-22.307864
 20
0.0
 30
0.0
 11
-11.068268
 21
0.0
 31
0.0
  0
LINE
  5
7F
  8
1
  6
CONTINUOUS
 62
   150
 10
118.478366
 20
-45.4
 30
0.0
 11
118.478366
 21
-7.0
 31
0.0
  0
LINE
  5
80
  8
1
  6
CONTINUOUS
 62
   150
 10
71.878366
 20
-47.4
 30
0.0
 11
67.678366
 21
-47.4
 31
0.0
  0
LINE
  5
81
  8
1
  6
CONTINUOUS
 62
   150
 10
-25.76892
 20
-7.127334
 30
0.0
 11
-22.789642
 21
-5.296124
 31
0.0
  0
LINE
  5
82
  8
1
  6
CONTINUOUS
 62
   150
 10
21.078366
 20
-7.0
 30
0.0
 11
21.078366
 21
-45.4
 31
0.0
  0
LINE
  5
83
  8
1
  6
CONTINUOUS
 62
   150
 10
98.278366
 20
-47.4
 30
0.0
 11
94.078366
 21
-47.4
 31
0.0
  0
LINE
  5
84
  8
1
  6
CONTINUOUS
 62
   150
 10
92.078366
 20
-45.4
 30
0.0
 11
92.078366
 21
-7.0
 31
0.0
  0
LINE
  5
85
  8
1
  6
CONTINUOUS
 62
   150
 10
94.078366
 20
-5.0
 30
0.0
 11
98.278366
 21
-5.0
 31
0.0
  0
LINE
  5
86
  8
1
  6
CONTINUOUS
 62
   150
 10
-18.521634
 20
-7.0
 30
0.0
 11
-18.521634
 21
-45.4
 31
0.0
  0
LINE
  5
87
  8
1
  6
CONTINUOUS
 62
   173
 10
100.70749
 20
-52.4
 30
0.0
 11
0.0
 21
-52.4
 31
0.0
  0
LINE
  5
88
  8
1
  6
CONTINUOUS
 62
   150
 10
14.878366
 20
-5.0
 30
0.0
 11
19.078366
 21
-5.0
 31
0.0
  0
LINE
  5
89
  8
1
  6
CONTINUOUS
 62
   173
 10
71.072116
 20
5.1
 30
0.0
 11
82.072116
 21
5.1
 31
0.0
  0
LINE
  5
8A
  8
1
  6
CONTINUOUS
 62
   173
 10
84.072116
 20
0.0
 30
0.0
 11
100.70749
 21
0.0
 31
0.0
  0
LINE
  5
8B
  8
1
  6
CONTINUOUS
 62
   150
 10
32.278366
 20
-47.4
 30
0.0
 11
28.078366
 21
-47.4
 31
0.0
  0
LINE
  5
8C
  8
1
  6
CONTINUOUS
 62
   150
 10
100.278366
 20
-7.0
 30
0.0
 11
100.278366
 21
-45.4
 31
0.0
  0
LINE
  5
8D
  8
1
  6
CONTINUOUS
 62
   150
 10
26.078366
 20
-45.4
 30
0.0
 11
26.078366
 21
-7.0
 31
0.0
  0
LINE
  5
8E
  8
1
  6
CONTINUOUS
 62
   150
 10
126.678366
 20
-7.0
 30
0.0
 11
126.678366
 21
-45.4
 31
0.0
  0
LINE
  5
8F
  8
1
  6
CONTINUOUS
 62
   150
 10
47.478366
 20
-7.0
 30
0.0
 11
47.478366
 21
-45.4
 31
0.0
  0
LINE
  5
90
  8
1
  6
CONTINUOUS
 62
   150
 10
120.478366
 20
-5.0
 30
0.0
 11
124.678366
 21
-5.0
 31
0.0
  0
LINE
  5
91
  8
1
  6
CONTINUOUS
 62
   150
 10
80.878366
 20
-5.0
 30
0.0
 11
85.078366
 21
-5.0
 31
0.0
  0
LINE
  5
92
  8
1
  6
CONTINUOUS
 62
   173
 10
-29.339848
 20
-3.45323
 30
0.0
 11
-24.926078
 21
-0.74031
 31
0.0
  0
LINE
  5
93
  8
1
  6
CONTINUOUS
 62
   150
 10
60.678366
 20
-7.0
 30
0.0
 11
60.678366
 21
-45.4
 31
0.0
  0
LINE
  5
94
  8
1
  6
CONTINUOUS
 62
   150
 10
142.878366
 20
-47.4
 30
0.0
 11
133.678366
 21
-47.4
 31
0.0
  0
LINE
  5
95
  8
1
  6
CONTINUOUS
 62
   150
 10
78.878366
 20
-45.4
 30
0.0
 11
78.878366
 21
-7.0
 31
0.0
  0
LINE
  5
96
  8
1
  6
CONTINUOUS
 62
   150
 10
5.878366
 20
-47.4
 30
0.0
 11
1.678366
 21
-47.4
 31
0.0
  0
LINE
  5
97
  8
1
  6
CONTINUOUS
 62
   150
 10
52.478366
 20
-45.4
 30
0.0
 11
52.478366
 21
-7.0
 31
0.0
  0
LINE
  5
98
  8
1
  6
CONTINUOUS
 62
   173
 10
130.475516
 20
-0.149287
 30
0.0
 11
146.091044
 21
-4.05317
 31
0.0
  0
LINE
  5
99
  8
1
  6
CONTINUOUS
 62
   150
 10
19.078366
 20
-47.4
 30
0.0
 11
14.878366
 21
-47.4
 31
0.0
  0
LINE
  5
9A
  8
1
  6
CONTINUOUS
 62
   173
 10
0.0
 20
0.0
 30
0.0
 11
69.072116
 21
0.0
 31
0.0
  0
LINE
  5
9B
  8
1
  6
CONTINUOUS
 62
   150
 10
67.678366
 20
-5.0
 30
0.0
 11
71.878366
 21
-5.0
 31
0.0
  0
LINE
  5
9C
  8
1
  6
CONTINUOUS
 62
   173
 10
144.878366
 20
-52.4
 30
0.0
 11
109.475
 21
-52.4
 31
0.0
  0
LINE
  5
9D
  8
1
  6
CONTINUOUS
 62
   173
 10
70.072116
 20
1.0
 30
0.0
 11
70.072116
 21
4.1
 31
0.0
  0
LINE
  5
9E
  8
1
  6
CONTINUOUS
 62
   173
 10
83.072116
 20
4.1
 30
0.0
 11
83.072116
 21
1.0
 31
0.0
  0
LINE
  5
9F
  8
1
  6
CONTINUOUS
 62
   150
 10
124.678366
 20
-47.4
 30
0.0
 11
120.478366
 21
-47.4
 31
0.0
  0
LINE
  5
A0
  8
1
  6
CONTINUOUS
 62
   150
 10
131.678366
 20
-45.4
 30
0.0
 11
131.678366
 21
-8.165435
 31
0.0
  0
LINE
  5
A1
  8
1
  6
CONTINUOUS
 62
   173
 10
-11.068268
 20
-52.4
 30
0.0
 11
-26.721634
 21
-52.4
 31
0.0
  0
LINE
  5
A2
  8
1
  6
CONTINUOUS
 62
   150
 10
-5.321634
 20
-7.0
 30
0.0
 11
-5.321634
 21
-45.4
 31
0.0
  0
LINE
  5
A3
  8
1
  6
CONTINUOUS
 62
   150
 10
28.078366
 20
-5.0
 30
0.0
 11
32.278366
 21
-5.0
 31
0.0
  0
LINE
  5
A4
  8
1
  6
CONTINUOUS
 62
   150
 10
7.878366
 20
-7.0
 30
0.0
 11
7.878366
 21
-45.4
 31
0.0
  0
LINE
  5
A5
  8
1
  6
CONTINUOUS
 62
   150
 10
54.478366
 20
-5.0
 30
0.0
 11
58.678366
 21
-5.0
 31
0.0
  0
LINE
  5
A6
  8
1
  6
CONTINUOUS
 62
   150
 10
45.478366
 20
-47.4
 30
0.0
 11
41.278366
 21
-47.4
 31
0.0
  0
LINE
  5
A7
  8
1
  6
CONTINUOUS
 62
   150
 10
111.478366
 20
-47.4
 30
0.0
 11
107.278366
 21
-47.4
 31
0.0
  0
LINE
  5
A8
  8
1
  6
CONTINUOUS
 62
   150
 10
1.678366
 20
-5.0
 30
0.0
 11
5.878366
 21
-5.0
 31
0.0
  0
LINE
  5
A9
  8
1
  6
CONTINUOUS
 62
   150
 10
85.078366
 20
-47.4
 30
0.0
 11
80.878366
 21
-47.4
 31
0.0
  0
LINE
  5
AA
  8
1
  6
CONTINUOUS
 62
   150
 10
-26.721634
 20
-45.4
 30
0.0
 11
-26.721634
 21
-8.83121
 31
0.0
  0
ARC
  5
AB
  8
1
  6
CONTINUOUS
 62
   150
 10
41.278366
 20
-7.0
 30
0.0
 40
2.000000000000002
 50
90.0
 51
180.0
  0
ARC
  5
AC
  8
1
  6
CONTINUOUS
 62
   150
 10
98.278366
 20
-7.0
 30
0.0
 40
2.000000000000002
 50
0.0
 51
90.0
  0
ARC
  5
AD
  8
1
  6
CONTINUOUS
 62
   150
 10
-24.721634
 20
-8.83121
 30
0.0
 40
2.000000000000002
 50
121.576922
 51
180.0
  0
ARC
  5
AE
  8
1
  6
CONTINUOUS
 62
   150
 10
85.078366
 20
-7.0
 30
0.0
 40
2.000000000000002
 50
0.0
 51
90.0
  0
ARC
  5
AF
  8
1
  6
CONTINUOUS
 62
   150
 10
133.678366
 20
-8.165435
 30
0.0
 40
2.000000000000002
 50
75.963757
 51
180.0
  0
ARC
  5
B0
  8
1
  6
CONTINUOUS
 62
   150
 10
-11.521634
 20
-45.4
 30
0.0
 40
1.999999999999995
 50
180.0
 51
270.0
  0
ARC
  5
B1
  8
1
  6
CONTINUOUS
 62
   150
 10
80.878366
 20
-45.4
 30
0.0
 40
2.000000000000002
 50
180.0
 51
270.0
  0
ARC
  5
B2
  8
1
  6
CONTINUOUS
 62
   150
 10
32.278366
 20
-45.4
 30
0.0
 40
2.000000000000002
 50
270.0
 51
0.0
  0
ARC
  5
B3
  8
1
  6
CONTINUOUS
 62
   173
 10
109.475
 20
-57.4
 30
0.0
 40
5.000000000000004
 50
90.0
 51
130.053599
  0
ARC
  5
B4
  8
1
  6
CONTINUOUS
 62
   173
 10
129.262838
 20
-5.0
 30
0.0
 40
5.000000000000002
 50
75.963757
 51
90.0
  0
ARC
  5
B5
  8
1
  6
CONTINUOUS
 62
   150
 10
5.878366
 20
-45.4
 30
0.0
 40
2.000000000000002
 50
270.0
 51
0.0
  0
CIRCLE
  5
B6
  8
1
  6
CONTINUOUS
 62
   150
 10
103.940866
 20
-50.817192
 30
0.0
 40
1.7
  0
ARC
  5
B7
  8
1
  6
CONTINUOUS
 62
   150
 10
-24.721634
 20
-45.4
 30
0.0
 40
1.999999999999995
 50
180.0
 51
270.0
  0
ARC
  5
B8
  8
1
  6
CONTINUOUS
 62
   150
 10
58.678366
 20
-45.4
 30
0.0
 40
2.000000000000002
 50
270.0
 51
360.0
  0
ARC
  5
B9
  8
1
  6
CONTINUOUS
 62
   150
 10
14.878366
 20
-45.4
 30
0.0
 40
2.000000000000002
 50
180.0
 51
270.0
  0
ARC
  5
BA
  8
1
  6
CONTINUOUS
 62
   150
 10
-11.521634
 20
-7.0
 30
0.0
 40
2.000000000000002
 50
90.0
 51
180.0
  0
ARC
  5
BB
  8
1
  6
CONTINUOUS
 62
   173
 10
144.878366
 20
-8.903882
 30
0.0
 40
5.000000000000004
 50
360.0
 51
75.963757
  0
ARC
  5
BC
  8
1
  6
CONTINUOUS
 62
   173
 10
0.0
 20
-57.4
 30
0.0
 40
5.000000000000004
 50
90.0
 51
130.053599
  0
ARC
  5
BD
  8
1
  6
CONTINUOUS
 62
   150
 10
142.878366
 20
-45.4
 30
0.0
 40
2.000000000000002
 50
270.0
 51
360.0
  0
ARC
  5
BE
  8
1
  6
CONTINUOUS
 62
   173
 10
0.0
 20
5.0
 30
0.0
 40
4.999999999999997
 50
229.946401
 51
270.0
  0
ARC
  5
BF
  8
1
  6
CONTINUOUS
 62
   173
 10
103.940866
 20
-1.582808
 30
0.0
 40
3.599999999999985
 50
49.946401
 51
153.917243
  0
ARC
  5
C0
  8
1
  6
CONTINUOUS
 62
   150
 10
5.878366
 20
-7.0
 30
0.0
 40
2.000000000000002
 50
0.0
 51
90.0
  0
ARC
  5
C1
  8
1
  6
CONTINUOUS
 62
   150
 10
-7.321634
 20
-7.0
 30
0.0
 40
2.000000000000002
 50
0.0
 51
90.0
  0
ARC
  5
C2
  8
1
  6
CONTINUOUS
 62
   150
 10
80.878366
 20
-7.0
 30
0.0
 40
2.000000000000002
 50
90.0
 51
180.0
  0
ARC
  5
C3
  8
1
  6
CONTINUOUS
 62
   150
 10
45.478366
 20
-45.4
 30
0.0
 40
2.000000000000002
 50
270.0
 51
0.0
  0
ARC
  5
C4
  8
1
  6
CONTINUOUS
 62
   150
 10
120.478366
 20
-45.4
 30
0.0
 40
2.000000000000002
 50
180.0
 51
270.0
  0
ARC
  5
C5
  8
1
  6
CONTINUOUS
 62
   173
 10
-22.307864
 20
-5.0
 30
0.0
 40
4.999999999999997
 50
90.0
 51
121.576922
  0
ARC
  5
C6
  8
1
  6
CONTINUOUS
 62
   150
 10
28.078366
 20
-7.0
 30
0.0
 40
2.000000000000002
 50
90.0
 51
180.0
  0
ARC
  5
C7
  8
1
  6
CONTINUOUS
 62
   173
 10
-26.721634
 20
-7.712919
 30
0.0
 40
5.0
 50
121.576922
 51
180.0
  0
ARC
  5
C8
  8
1
  6
CONTINUOUS
 62
   150
 10
111.478366
 20
-7.0
 30
0.0
 40
2.000000000000002
 50
0.0
 51
90.0
  0
ARC
  5
C9
  8
1
  6
CONTINUOUS
 62
   173
 10
144.878366
 20
-47.4
 30
0.0
 40
4.999999999999997
 50
270.0
 51
360.0
  0
ARC
  5
CA
  8
1
  6
CONTINUOUS
 62
   150
 10
71.878366
 20
-45.4
 30
0.0
 40
2.000000000000002
 50
270.0
 51
0.0
  0
CIRCLE
  5
CB
  8
1
  6
CONTINUOUS
 62
   150
 10
-5.534134
 20
-1.582808
 30
0.0
 40
1.700000000000003
  0
ARC
  5
CC
  8
1
  6
CONTINUOUS
 62
   150
 10
-20.521634
 20
-7.0
 30
0.0
 40
2.000000000000002
 50
0.0
 51
90.0
  0
ARC
  5
CD
  8
1
  6
CONTINUOUS
 62
   173
 10
-26.721634
 20
-47.4
 30
0.0
 40
5.000000000000004
 50
180.0
 51
270.0
  0
ARC
  5
CE
  8
1
  6
CONTINUOUS
 62
   150
 10
124.678366
 20
-45.4
 30
0.0
 40
2.000000000000002
 50
270.0
 51
0.0
  0
ARC
  5
CF
  8
1
  6
CONTINUOUS
 62
   150
 10
1.678366
 20
-7.0
 30
0.0
 40
2.000000000000002
 50
90.0
 51
180.0
  0
ARC
  5
D0
  8
1
  6
CONTINUOUS
 62
   150
 10
94.078366
 20
-7.0
 30
0.0
 40
2.000000000000002
 50
90.0
 51
180.0
  0
ARC
  5
D1
  8
1
  6
CONTINUOUS
 62
   150
 10
133.678366
 20
-45.4
 30
0.0
 40
2.000000000000002
 50
180.0
 51
270.0
  0
ARC
  5
D2
  8
1
  6
CONTINUOUS
 62
   150
 10
54.478366
 20
-7.0
 30
0.0
 40
2.000000000000002
 50
90.0
 51
180.0
  0
ARC
  5
D3
  8
1
  6
CONTINUOUS
 62
   173
 10
-11.068268
 20
-57.4
 30
0.0
 40
5.000000000000004
 50
49.946401
 51
90.0
  0
ARC
  5
D4
  8
1
  6
CONTINUOUS
 62
   150
 10
71.878366
 20
-7.0
 30
0.0
 40
2.000000000000002
 50
0.0
 51
90.0
  0
ARC
  5
D5
  8
1
  6
CONTINUOUS
 62
   150
 10
28.078366
 20
-45.4
 30
0.0
 40
2.000000000000002
 50
180.0
 51
270.0
  0
ARC
  5
D6
  8
1
  6
CONTINUOUS
 62
   150
 10
1.678366
 20
-45.4
 30
0.0
 40
2.000000000000002
 50
180.0
 51
270.0
  0
ARC
  5
D7
  8
1
  6
CONTINUOUS
 62
   150
 10
111.478366
 20
-45.4
 30
0.0
 40
2.000000000000002
 50
270.0
 51
0.0
  0
ARC
  5
D8
  8
1
  6
CONTINUOUS
 62
   173
 10
103.940866
 20
-50.817192
 30
0.0
 40
3.599999999999981
 50
206.082757
 51
310.053599
  0
ARC
  5
D9
  8
1
  6
CONTINUOUS
 62
   173
 10
-11.068268
 20
5.0
 30
0.0
 40
5.000000000000003
 50
270.0
 51
310.053599
  0
ARC
  5
DA
  8
1
  6
CONTINUOUS
 62
   150
 10
120.478366
 20
-7.0
 30
0.0
 40
2.000000000000002
 50
90.0
 51
180.0
  0
ARC
  5
DB
  8
1
  6
CONTINUOUS
 62
   150
 10
19.078366
 20
-7.0
 30
0.0
 40
2.000000000000002
 50
360.0
 51
90.0
  0
ARC
  5
DC
  8
1
  6
CONTINUOUS
 62
   150
 10
94.078366
 20
-45.4
 30
0.0
 40
2.000000000000002
 50
180.0
 51
270.0
  0
ARC
  5
DD
  8
1
  6
CONTINUOUS
 62
   173
 10
84.072116
 20
1.0
 30
0.0
 40
1.000000000000001
 50
180.0
 51
270.0
  0
ARC
  5
DE
  8
1
  6
CONTINUOUS
 62
   150
 10
142.878366
 20
-10.465435
 30
0.0
 40
1.999999999999998
 50
360.0
 51
75.963757
  0
ARC
  5
DF
  8
1
  6
CONTINUOUS
 62
   173
 10
-5.534134
 20
-50.817192
 30
0.0
 40
3.599999999999998
 50
229.946401
 51
310.053599
  0
ARC
  5
E0
  8
1
  6
CONTINUOUS
 62
   150
 10
-7.321634
 20
-45.4
 30
0.0
 40
2.000000000000002
 50
270.0
 51
0.0
  0
CIRCLE
  5
E1
  8
1
  6
CONTINUOUS
 62
   150
 10
-5.534134
 20
-50.817192
 30
0.0
 40
1.7
  0
ARC
  5
E2
  8
1
  6
CONTINUOUS
 62
   150
 10
85.078366
 20
-45.4
 30
0.0
 40
2.000000000000002
 50
270.0
 51
0.0
  0
ARC
  5
E3
  8
1
  6
CONTINUOUS
 62
   150
 10
41.278366
 20
-45.4
 30
0.0
 40
1.999999999999995
 50
180.0
 51
270.0
  0
ARC
  5
E4
  8
1
  6
CONTINUOUS
 62
   150
 10
124.678366
 20
-7.0
 30
0.0
 40
2.000000000000002
 50
0.0
 51
90.0
  0
ARC
  5
E5
  8
1
  6
CONTINUOUS
 62
   173
 10
109.475
 20
5.0
 30
0.0
 40
4.99999999999999
 50
229.946401
 51
270.0
  0
ARC
  5
E6
  8
1
  6
CONTINUOUS
 62
   150
 10
98.278366
 20
-45.4
 30
0.0
 40
2.000000000000002
 50
270.0
 51
0.0
  0
ARC
  5
E7
  8
1
  6
CONTINUOUS
 62
   150
 10
45.478366
 20
-7.0
 30
0.0
 40
2.000000000000002
 50
0.0
 51
90.0
  0
ARC
  5
E8
  8
1
  6
CONTINUOUS
 62
   150
 10
19.078366
 20
-45.4
 30
0.0
 40
2.000000000000002
 50
270.0
 51
0.0
  0
ARC
  5
E9
  8
1
  6
CONTINUOUS
 62
   150
 10
54.478366
 20
-45.4
 30
0.0
 40
2.000000000000002
 50
180.0
 51
270.0
  0
ARC
  5
EA
  8
1
  6
CONTINUOUS
 62
   150
 10
-20.521634
 20
-45.4
 30
0.0
 40
2.000000000000002
 50
270.0
 51
0.0
  0
ARC
  5
EB
  8
1
  6
CONTINUOUS
 62
   173
 10
82.072116
 20
4.1
 30
0.0
 40
1.000000000000001
 50
0.0
 51
90.0
  0
ARC
  5
EC
  8
1
  6
CONTINUOUS
 62
   150
 10
67.678366
 20
-45.4
 30
0.0
 40
2.000000000000002
 50
180.0
 51
270.0
  0
ARC
  5
ED
  8
1
  6
CONTINUOUS
 62
   150
 10
107.278366
 20
-7.0
 30
0.0
 40
2.000000000000002
 50
90.0
 51
180.0
  0
ARC
  5
EE
  8
1
  6
CONTINUOUS
 62
   173
 10
69.072116
 20
1.0
 30
0.0
 40
1.000000000000001
 50
270.0
 51
0.0
  0
CIRCLE
  5
EF
  8
1
  6
CONTINUOUS
 62
   150
 10
103.940866
 20
-1.582808
 30
0.0
 40
1.700000000000003
  0
ARC
  5
F0
  8
1
  6
CONTINUOUS
 62
   173
 10
-5.534134
 20
-1.582808
 30
0.0
 40
3.600000000000002
 50
49.946401
 51
130.053599
  0
ARC
  5
F1
  8
1
  6
CONTINUOUS
 62
   150
 10
-21.742356
 20
-7.0
 30
0.0
 40
1.999999999999997
 50
90.0
 51
121.576922
  0
ARC
  5
F2
  8
1
  6
CONTINUOUS
 62
   173
 10
71.072116
 20
4.1
 30
0.0
 40
1.000000000000001
 50
90.0
 51
180.0
  0
ARC
  5
F3
  8
1
  6
CONTINUOUS
 62
   150
 10
67.678366
 20
-7.0
 30
0.0
 40
2.000000000000002
 50
90.0
 51
180.0
  0
ARC
  5
F4
  8
1
  6
CONTINUOUS
 62
   150
 10
32.278366
 20
-7.0
 30
0.0
 40
2.000000000000002
 50
0.0
 51
90.0
  0
ARC
  5
F5
  8
1
  6
CONTINUOUS
 62
   150
 10
58.678366
 20
-7.0
 30
0.0
 40
2.000000000000002
 50
0.0
 51
90.0
  0
ARC
  5
F6
  8
1
  6
CONTINUOUS
 62
   150
 10
107.278366
 20
-45.4
 30
0.0
 40
2.000000000000002
 50
180.0
 51
270.0
  0
ARC
  5
F7
  8
1
  6
CONTINUOUS
 62
   150
 10
14.878366
 20
-7.0
 30
0.0
 40
2.000000000000002
 50
90.0
 51
180.0
  0
ENDSEC
  0
EOF
