  0
SECTION
  2
HEADER
  9
$ACADVER
  1
AC1009
  9
$DWGCODEPAGE
  3
ansi_1252
  9
$INSBASE
 10
0.0
 20
0.0
 30
0.0
  9
$EXTMIN
 10
-0.5
 20
-0.5
 30
-0.5
  9
$EXTMAX
 10
5.0
 20
5.0
 30
5.0
  9
$LIMMIN
 10
-0.5
 20
-0.5
  9
$LIMMAX
 10
5.0
 20
5.0
  9
$ORTHOMODE
 70
     0
  9
$REGENMODE
 70
     1
  9
$FILLMODE
 70
     1
  9
$QTEXTMODE
 70
     0
  9
$MIRRTEXT
 70
     1
  9
$DRAGMODE
 70
     2
  9
$LTSCALE
 40
1.0
  9
$OSMODE
 70
    37
  9
$ATTMODE
 70
     1
  9
$TEXTSIZE
 40
0.2
  9
$TRACEWID
 40
0.05
  9
$TEXTSTYLE
  7
STANDARD
  9
$CLAYER
  8
0
  9
$CELTYPE
  6
BYLAYER
  9
$CECOLOR
 62
   256
  9
$DIMSCALE
 40
1.0
  9
$DIMASZ
 40
0.18
  9
$DIMEXO
 40
0.0625
  9
$DIMDLI
 40
0.38
  9
$DIMRND
 40
0.0
  9
$DIMDLE
 40
0.0
  9
$DIMEXE
 40
0.18
  9
$DIMTP
 40
0.0
  9
$DIMTM
 40
0.0
  9
$DIMTXT
 40
0.18
  9
$DIMCEN
 40
0.09
  9
$DIMTSZ
 40
0.0
  9
$DIMTOL
 70
     0
  9
$DIMLIM
 70
     0
  9
$DIMTIH
 70
     1
  9
$DIMTOH
 70
     1
  9
$DIMSE1
 70
     0
  9
$DIMSE2
 70
     0
  9
$DIMTAD
 70
     0
  9
$DIMZIN
 70
     0
  9
$DIMBLK
  1

  9
$DIMASO
 70
     1
  9
$DIMSHO
 70
     1
  9
$DIMPOST
  1

  9
$DIMAPOST
  1

  9
$DIMALT
 70
     0
  9
$DIMALTD
 70
     2
  9
$DIMALTF
 40
25.4
  9
$DIMLFAC
 40
1.0
  9
$DIMTOFL
 70
     0
  9
$DIMTVP
 40
0.0
  9
$DIMTIX
 70
     0
  9
$DIMSOXD
 70
     0
  9
$DIMSAH
 70
     0
  9
$DIMBLK1
  1

  9
$DIMBLK2
  1

  9
$DIMSTYLE
  2
STANDARD
  9
$DIMCLRD
 70
     0
  9
$DIMCLRE
 70
     0
  9
$DIMCLRT
 70
     0
  9
$DIMTFAC
 40
1.0
  9
$DIMGAP
 40
0.09
  9
$LUNITS
 70
     2
  9
$LUPREC
 70
     4
  9
$SKETCHINC
 40
0.1
  9
$FILLETRAD
 40
0.0
  9
$AUNITS
 70
     0
  9
$AUPREC
 70
     0
  9
$MENU
  1
.
  9
$ELEVATION
 40
0.0
  9
$PELEVATION
 40
0.0
  9
$THICKNESS
 40
0.0
  9
$LIMCHECK
 70
     0
  9
$CHAMFERA
 40
0.0
  9
$CHAMFERB
 40
0.0
  9
$SKPOLY
 70
     0
  9
$TDCREATE
 40
2460341.778039236
  9
$TDUPDATE
 40
2460341.778039456
  9
$TDINDWG
 40
0.0000000116
  9
$TDUSRTIMER
 40
0.0000000116
  9
$USRTIMER
 70
     1
  9
$ANGBASE
 50
0.0
  9
$ANGDIR
 70
     0
  9
$PDMODE
 70
     0
  9
$PDSIZE
 40
0.0
  9
$PLINEWID
 40
0.0
  9
$COORDS
 70
     1
  9
$SPLFRAME
 70
     0
  9
$SPLINETYPE
 70
     6
  9
$SPLINESEGS
 70
     8
  9
$ATTDIA
 70
     0
  9
$ATTREQ
 70
     1
  9
$HANDLING
 70
     1
  9
$HANDSEED
  5
B8
  9
$SURFTAB1
 70
     6
  9
$SURFTAB2
 70
     6
  9
$SURFTYPE
 70
     6
  9
$SURFU
 70
     6
  9
$SURFV
 70
     6
  9
$UCSNAME
  2

  9
$UCSORG
 10
0.0
 20
0.0
 30
0.0
  9
$UCSXDIR
 10
1.0
 20
0.0
 30
0.0
  9
$UCSYDIR
 10
0.0
 20
1.0
 30
0.0
  9
$PUCSNAME
  2

  9
$PUCSORG
 10
0.0
 20
0.0
 30
0.0
  9
$PUCSXDIR
 10
1.0
 20
0.0
 30
0.0
  9
$PUCSYDIR
 10
0.0
 20
1.0
 30
0.0
  9
$USERI1
 70
     0
  9
$USERI2
 70
     0
  9
$USERI3
 70
     0
  9
$USERI4
 70
     0
  9
$USERI5
 70
     0
  9
$USERR1
 40
0.0
  9
$USERR2
 40
0.0
  9
$USERR3
 40
0.0
  9
$USERR4
 40
0.0
  9
$USERR5
 40
0.0
  9
$WORLDVIEW
 70
     1
  9
$SHADEDGE
 70
     3
  9
$SHADEDIF
 70
    70
  9
$TILEMODE
 70
     1
  9
$MAXACTVP
 70
    64
  9
$PLIMCHECK
 70
     0
  9
$PEXTMIN
 10
-0.5
 20
-0.5
 30
-0.5
  9
$PEXTMAX
 10
5.0
 20
5.0
 30
5.0
  9
$PLIMMIN
 10
-0.5
 20
-0.5
  9
$PLIMMAX
 10
5.0
 20
5.0
  9
$UNITMODE
 70
     0
  9
$VISRETAIN
 70
     1
  9
$PLINEGEN
 70
     0
  9
$PSLTSCALE
 70
     1
  0
ENDSEC
  0
SECTION
  2
TABLES
  0
TABLE
  2
VPORT
 70
    16
  0
VPORT
  2
*ACTIVE
 70
     0
 10
0.0
 20
0.0
 11
1.0
 21
1.0
 12
112.7509
 22
-35.35
 13
0.0
 23
0.0
 14
0.5
 24
0.5
 15
0.5
 25
0.5
 16
0.0
 26
0.0
 36
1.0
 17
0.0
 27
0.0
 37
0.0
 40
227.277083
 41
0.078128
 42
50.0
 43
372.433582
 44
-372.433582
 50
0.0
 51
0.0
 71
     0
 72
   100
 73
     1
 74
     3
 75
     0
 76
     0
 77
     0
 78
     0
  0
VPORT
  2
L1
 70
     0
 10
0.0
 20
0.0
 11
1.0
 21
1.0
 12
112.7509
 22
-35.35
 13
0.0
 23
0.0
 14
0.5
 24
0.5
 15
0.5
 25
0.5
 16
0.0
 26
0.0
 36
1.0
 17
0.0
 27
0.0
 37
0.0
 40
227.277083
 41
0.078128
 42
50.0
 43
372.433582
 44
-372.433582
 50
0.0
 51
0.0
 71
     0
 72
   100
 73
     1
 74
     3
 75
     0
 76
     0
 77
     0
 78
     0
  0
VPORT
  2
L2
 70
     0
 10
0.0
 20
0.0
 11
0.5
 21
1.0
 12
0.0
 22
0.0
 13
0.0
 23
0.0
 14
0.5
 24
0.5
 15
0.5
 25
0.5
 16
0.0
 26
-1.0
 36
0.0
 17
0.0
 27
0.0
 37
0.0
 40
1573.798492
 41
0.011283
 42
50.0
 43
813.746979
 44
-813.746979
 50
0.0
 51
0.0
 71
     0
 72
   100
 73
     1
 74
     3
 75
     0
 76
     0
 77
     0
 78
     0
  0
VPORT
  2
L2
 70
     0
 10
0.5
 20
0.0
 11
1.0
 21
1.0
 12
0.0
 22
0.0
 13
0.0
 23
0.0
 14
0.5
 24
0.5
 15
0.5
 25
0.5
 16
1.0
 26
0.0
 36
0.0
 17
0.0
 27
0.0
 37
0.0
 40
1573.798492
 41
0.011283
 42
50.0
 43
795.062351
 44
-795.062351
 50
0.0
 51
0.0
 71
     0
 72
   100
 73
     1
 74
     3
 75
     0
 76
     0
 77
     0
 78
     0
  0
VPORT
  2
L3
 70
     0
 10
0.0
 20
0.5
 11
1.0
 21
1.0
 12
112.7509
 22
-35.35
 13
0.0
 23
0.0
 14
0.5
 24
0.5
 15
0.5
 25
0.5
 16
0.0
 26
0.0
 36
1.0
 17
0.0
 27
0.0
 37
0.0
 40
227.277083
 41
0.078128
 42
50.0
 43
372.433582
 44
-372.433582
 50
0.0
 51
0.0
 71
     0
 72
   100
 73
     1
 74
     3
 75
     0
 76
     0
 77
     0
 78
     0
  0
VPORT
  2
L3
 70
     0
 10
0.0
 20
0.0
 11
1.0
 21
0.5
 12
0.0
 22
0.0
 13
0.0
 23
0.0
 14
0.5
 24
0.5
 15
0.5
 25
0.5
 16
0.0
 26
-1.0
 36
0.0
 17
0.0
 27
0.0
 37
0.0
 40
1573.798492
 41
0.011283
 42
50.0
 43
813.746979
 44
-813.746979
 50
0.0
 51
0.0
 71
     0
 72
   100
 73
     1
 74
     3
 75
     0
 76
     0
 77
     0
 78
     0
  0
VPORT
  2
L4
 70
     0
 10
0.0
 20
0.5
 11
0.5
 21
1.0
 12
112.7509
 22
-35.35
 13
0.0
 23
0.0
 14
0.5
 24
0.5
 15
0.5
 25
0.5
 16
0.0
 26
0.0
 36
1.0
 17
0.0
 27
0.0
 37
0.0
 40
227.277083
 41
0.078128
 42
50.0
 43
372.433582
 44
-372.433582
 50
0.0
 51
0.0
 71
     0
 72
   100
 73
     1
 74
     3
 75
     0
 76
     0
 77
     0
 78
     0
  0
VPORT
  2
L4
 70
     0
 10
0.0
 20
0.0
 11
0.5
 21
0.5
 12
0.0
 22
0.0
 13
0.0
 23
0.0
 14
0.5
 24
0.5
 15
0.5
 25
0.5
 16
0.0
 26
-1.0
 36
0.0
 17
0.0
 27
0.0
 37
0.0
 40
1573.798492
 41
0.011283
 42
50.0
 43
813.746979
 44
-813.746979
 50
0.0
 51
0.0
 71
     0
 72
   100
 73
     1
 74
     3
 75
     0
 76
     0
 77
     0
 78
     0
  0
VPORT
  2
L4
 70
     0
 10
0.5
 20
0.0
 11
1.0
 21
0.5
 12
0.0
 22
0.0
 13
0.0
 23
0.0
 14
0.5
 24
0.5
 15
0.5
 25
0.5
 16
1.0
 26
0.0
 36
0.0
 17
0.0
 27
0.0
 37
0.0
 40
1573.798492
 41
0.011283
 42
50.0
 43
795.062351
 44
-795.062351
 50
0.0
 51
0.0
 71
     0
 72
   100
 73
     1
 74
     3
 75
     0
 76
     0
 77
     0
 78
     0
  0
VPORT
  2
L4
 70
     0
 10
0.5
 20
0.5
 11
1.0
 21
1.0
 12
0.0
 22
0.0
 13
0.0
 23
0.0
 14
0.5
 24
0.5
 15
0.5
 25
0.5
 16
0.5773502691896258
 26
-0.5773502691896258
 36
0.5773502691896258
 17
0.0
 27
0.0
 37
0.0
 40
1547.047161
 41
0.011478
 42
50.0
 43
806.12644
 44
-806.12644
 50
0.0
 51
0.0
 71
     0
 72
   100
 73
     1
 74
     3
 75
     0
 76
     0
 77
     0
 78
     0
  0
VPORT
  2
L6
 70
     0
 10
0.0
 20
0.5
 11
0.333333
 21
1.0
 12
0.0
 22
0.0
 13
0.0
 23
0.0
 14
0.5
 24
0.5
 15
0.5
 25
0.5
 16
0.7188730927569433
 26
-0.5850486126764433
 36
0.3754192287502549
 17
0.0
 27
0.0
 37
0.0
 40
1633.263976
 41
0.010872
 42
50.0
 43
845.484972
 44
-845.484972
 50
0.0
 51
0.0
 71
     0
 72
   100
 73
     1
 74
     3
 75
     0
 76
     0
 77
     0
 78
     0
  0
VPORT
  2
L6
 70
     0
 10
0.0
 20
0.0
 11
0.333333
 21
0.5
 12
0.0
 22
0.0
 13
0.0
 23
0.0
 14
0.5
 24
0.5
 15
0.5
 25
0.5
 16
-1.0
 26
0.0
 36
0.0
 17
0.0
 27
0.0
 37
0.0
 40
1573.798492
 41
0.011283
 42
50.0
 43
795.062351
 44
-795.062351
 50
0.0
 51
0.0
 71
     0
 72
   100
 73
     1
 74
     3
 75
     0
 76
     0
 77
     0
 78
     0
  0
VPORT
  2
L6
 70
     0
 10
0.333333
 20
0.5
 11
0.666667
 21
1.0
 12
112.7509
 22
-35.35
 13
0.0
 23
0.0
 14
0.5
 24
0.5
 15
0.5
 25
0.5
 16
0.0
 26
0.0
 36
1.0
 17
0.0
 27
0.0
 37
0.0
 40
227.277083
 41
0.078128
 42
50.0
 43
372.433582
 44
-372.433582
 50
0.0
 51
0.0
 71
     0
 72
   100
 73
     1
 74
     3
 75
     0
 76
     0
 77
     0
 78
     0
  0
VPORT
  2
L6
 70
     0
 10
0.333333
 20
0.0
 11
0.666667
 21
0.5
 12
0.0
 22
0.0
 13
0.0
 23
0.0
 14
0.5
 24
0.5
 15
0.5
 25
0.5
 16
0.0
 26
-1.0
 36
0.0
 17
0.0
 27
0.0
 37
0.0
 40
1573.798492
 41
0.011283
 42
50.0
 43
813.746979
 44
-813.746979
 50
0.0
 51
0.0
 71
     0
 72
   100
 73
     1
 74
     3
 75
     0
 76
     0
 77
     0
 78
     0
  0
VPORT
  2
L6
 70
     0
 10
0.666667
 20
0.5
 11
1.0
 21
1.0
 12
0.0
 22
0.0
 13
0.0
 23
0.0
 14
0.5
 24
0.5
 15
0.5
 25
0.5
 16
0.5773502691896258
 26
-0.5773502691896258
 36
0.5773502691896258
 17
0.0
 27
0.0
 37
0.0
 40
1547.047161
 41
0.011478
 42
50.0
 43
806.12644
 44
-806.12644
 50
0.0
 51
0.0
 71
     0
 72
   100
 73
     1
 74
     3
 75
     0
 76
     0
 77
     0
 78
     0
  0
VPORT
  2
L6
 70
     0
 10
0.666667
 20
0.0
 11
1.0
 21
0.5
 12
0.0
 22
0.0
 13
0.0
 23
0.0
 14
0.5
 24
0.5
 15
0.5
 25
0.5
 16
1.0
 26
0.0
 36
0.0
 17
0.0
 27
0.0
 37
0.0
 40
1573.798492
 41
0.011283
 42
50.0
 43
795.062351
 44
-795.062351
 50
0.0
 51
0.0
 71
     0
 72
   100
 73
     1
 74
     3
 75
     0
 76
     0
 77
     0
 78
     0
  0
ENDTAB
  0
TABLE
  2
LTYPE
 70
    10
  0
LTYPE
  2
CONTINUOUS
 70
     0
  3
Solid line
 72
    65
 73
     0
 40
0.0
  0
LTYPE
  2
ACAD_ISO04W100
 70
     0
  3
ISO long-dash dot ____ . ____ . ____ . ____ . _
 72
    65
 73
     4
 40
30.0
 49
24.0
 49
-3.0
 49
0.0
 49
-3.0
  0
LTYPE
  2
ACAD_ISO05W100
 70
     0
  3
ISO long-dash double-dot ____ .. ____ .. ____ . 
 72
    65
 73
     6
 40
33.0
 49
24.0
 49
-3.0
 49
0.0
 49
-3.0
 49
0.0
 49
-3.0
  0
LTYPE
  2
ACAD_ISO06W100
 70
     0
  3
ISO long-dash triple-dot ____ ... ____ ... ____
 72
    65
 73
     8
 40
36.0
 49
24.0
 49
-3.0
 49
0.0
 49
-3.0
 49
0.0
 49
-3.0
 49
0.0
 49
-3.0
  0
LTYPE
  2
ACAD_ISO09W100
 70
     0
  3
ISO long-dash double-short-dash ____ __ __ ____
 72
    65
 73
     6
 40
45.0
 49
24.0
 49
-3.0
 49
6.0
 49
-3.0
 49
6.0
 49
-3.0
  0
LTYPE
  2
CENTER
 70
     0
  3
____ _ ____ _ ____ _ ____
 72
    65
 73
     4
 40
47.4
 49
22.0
 49
-8.5
 49
8.5
 49
-8.5
  0
LTYPE
  2
DASHDOT
 70
     0
  3
_._._._._._._._._._._._._._._._.
 72
    65
 73
     4
 40
70.0
 49
31.0
 49
-13.0
 49
13.0
 49
-13.0
  0
LTYPE
  2
DASHED
 70
     0
  3
__ __ __ __ __ __ __ __ __
 72
    65
 73
     2
 40
25.72
 49
12.86
 49
-12.86
  0
LTYPE
  2
DOT
 70
     0
  3
.........................
 72
    65
 73
     2
 40
10.0
 49
0.0
 49
-10.0
  0
LTYPE
  2
PHANTOM
 70
     0
  3
____ _ _ ____ _ _ _____ _ _ ____
 72
    65
 73
     6
 40
50.5
 49
18.0
 49
-6.5
 49
6.5
 49
-6.5
 49
6.5
 49
-6.5
  0
ENDTAB
  0
TABLE
  2
LAYER
 70
     2
  0
LAYER
  2
0
 70
     0
 62
     7
  6
CONTINUOUS
  0
LAYER
  2
1
 70
     0
 62
     7
  6
CONTINUOUS
  0
ENDTAB
  0
TABLE
  2
STYLE
 70
     1
  0
STYLE
  2
STANDARD
 70
     0
 40
0.0
 41
1.0
 50
0.0
 71
     0
 42
0.2
  3
txt
  4

  0
ENDTAB
  0
TABLE
  2
VIEW
 70
     8
  0
VIEW
  2
TOP
 70
     0
 40
227.277083
 10
112.7509
 20
-35.35
 41
414.602083
 11
0.0
 21
0.0
 31
1.0
 12
0.0
 22
0.0
 32
0.0
 42
50.0
 43
372.433582
 44
-372.433582
 50
0.0
 71
     0
  0
VIEW
  2
FRONT
 70
     0
 40
1573.798492
 10
0.0
 20
0.0
 41
414.602083
 11
0.0
 21
-1.0
 31
0.0
 12
0.0
 22
0.0
 32
0.0
 42
50.0
 43
813.746979
 44
-813.746979
 50
0.0
 71
     0
  0
VIEW
  2
RIGHT
 70
     0
 40
1573.798492
 10
0.0
 20
0.0
 41
227.277083
 11
1.0
 21
0.0
 31
0.0
 12
0.0
 22
0.0
 32
0.0
 42
50.0
 43
795.062351
 44
-795.062351
 50
0.0
 71
     0
  0
VIEW
  2
BACK
 70
     0
 40
1573.798492
 10
0.0
 20
0.0
 41
414.602083
 11
0.0
 21
1.0
 31
0.0
 12
0.0
 22
0.0
 32
0.0
 42
50.0
 43
813.746979
 44
-813.746979
 50
0.0
 71
     0
  0
VIEW
  2
BOTTOM
 70
     0
 40
227.277083
 10
0.0
 20
0.0
 41
414.602083
 11
0.0
 21
0.0
 31
-1.0
 12
0.0
 22
0.0
 32
0.0
 42
50.0
 43
786.899246
 44
-786.899246
 50
180.0
 71
     0
  0
VIEW
  2
LEFT
 70
     0
 40
1573.798492
 10
0.0
 20
0.0
 41
227.277083
 11
-1.0
 21
0.0
 31
0.0
 12
0.0
 22
0.0
 32
0.0
 42
50.0
 43
795.062351
 44
-795.062351
 50
0.0
 71
     0
  0
VIEW
  2
ISOMETRIC
 70
     0
 40
1547.047161
 10
0.0
 20
0.0
 41
453.877111
 11
0.5773502691896258
 21
-0.5773502691896258
 31
0.5773502691896258
 12
0.0
 22
0.0
 32
0.0
 42
50.0
 43
806.12644
 44
-806.12644
 50
0.0
 71
     0
  0
VIEW
  2
TRIMETRIC
 70
     0
 40
1633.263976
 10
0.0
 20
0.0
 41
437.981889
 11
0.7188730927569433
 21
-0.5850486126764433
 31
0.3754192287502549
 12
0.0
 22
0.0
 32
0.0
 42
50.0
 43
845.484972
 44
-845.484972
 50
0.0
 71
     0
  0
ENDTAB
  0
TABLE
  2
UCS
 70
     0
  0
ENDTAB
  0
TABLE
  2
APPID
 70
     1
  0
APPID
  2
ACAD
 70
     0
  0
ENDTAB
  0
TABLE
  2
DIMSTYLE
 70
     1
  0
DIMSTYLE
  2
STANDARD
 70
     0
  3

  4

  5

  6

  7

 40
1.0
 41
0.18
 42
0.0625
 43
0.38
 44
0.18
 45
0.0
 46
0.0
 47
0.0
 48
0.0
140
0.18
141
0.09
142
0.0
143
25.4
144
1.0
145
0.0
146
1.0
147
0.09
 71
     0
 72
     0
 73
     1
 74
     1
 75
     0
 76
     0
 77
     0
 78
     0
170
     0
171
     2
172
     0
173
     0
174
     0
175
     0
176
     0
177
     0
178
     0
  0
ENDTAB
  0
ENDSEC
  0
SECTION
  2
BLOCKS
  0
BLOCK
  8
0
  2
$MODEL_SPACE
 70
     0
 10
0.0
 20
0.0
 30
0.0
  3
$MODEL_SPACE
  1

  0
ENDBLK
  5
21
  8
0
  0
BLOCK
 67
     1
  8
0
  2
$PAPER_SPACE
 70
     0
 10
0.0
 20
0.0
 30
0.0
  3
$PAPER_SPACE
  1

  0
ENDBLK
  5
1D
 67
     1
  8
0
  0
ENDSEC
  0
SECTION
  2
ENTITIES
  0
LINE
  5
67
  8
1
  6
CONTINUOUS
 62
   173
 10
75.009909
 20
-58.9
 30
0.0
 11
75.009909
 21
-60.9
 31
0.0
  0
LINE
  5
69
  8
1
  6
CONTINUOUS
 62
   173
 10
175.138808
 20
-70.7
 30
0.0
 11
159.338808
 21
-70.7
 31
0.0
  0
LINE
  5
6A
  8
1
  6
CONTINUOUS
 62
   173
 10
213.651799
 20
-65.7
 30
0.0
 11
179.138808
 21
-65.7
 31
0.0
  0
LINE
  5
6B
  8
1
  6
CONTINUOUS
 62
   173
 10
2.0
 20
0.0
 30
0.0
 11
223.501799
 21
0.0
 31
0.0
  0
LINE
  5
6C
  8
1
  6
CONTINUOUS
 62
   173
 10
180.616799
 20
-34.367445
 30
0.0
 11
180.616799
 21
-46.9
 31
0.0
  0
LINE
  5
6D
  8
1
  6
CONTINUOUS
 62
   173
 10
75.216982
 20
-46.9
 30
0.0
 11
75.216982
 21
-34.4
 31
0.0
  0
LINE
  5
6E
  8
1
  6
CONTINUOUS
 62
   173
 10
74.009909
 20
-61.9
 30
0.0
 11
64.716982
 21
-61.9
 31
0.0
  0
LINE
  5
6F
  8
1
  6
CONTINUOUS
 62
   173
 10
223.501799
 20
-58.15
 30
0.0
 11
217.651799
 21
-58.15
 31
0.0
  0
LINE
  5
70
  8
1
  6
CONTINUOUS
 62
   173
 10
64.716982
 20
-51.9
 30
0.0
 11
70.216982
 21
-51.9
 31
0.0
  0
LINE
  5
71
  8
1
  6
CONTINUOUS
 62
   173
 10
223.501799
 20
-29.367445
 30
0.0
 11
185.616799
 21
-29.367445
 31
0.0
  0
LINE
  5
72
  8
1
  6
CONTINUOUS
 62
   173
 10
92.509909
 20
-57.9
 30
0.0
 11
76.009909
 21
-57.9
 31
0.0
  0
LINE
  5
73
  8
1
  6
CONTINUOUS
 62
   173
 10
225.501799
 20
-53.9
 30
0.0
 11
225.501799
 21
-56.15
 31
0.0
  0
LINE
  5
74
  8
1
  6
CONTINUOUS
 62
   173
 10
177.138808
 20
-67.7
 30
0.0
 11
177.138808
 21
-68.7
 31
0.0
  0
LINE
  5
75
  8
1
  6
CONTINUOUS
 62
   173
 10
94.509909
 20
-63.7
 30
0.0
 11
94.509909
 21
-59.9
 31
0.0
  0
LINE
  5
76
  8
1
  6
CONTINUOUS
 62
   173
 10
0.0
 20
-27.4
 30
0.0
 11
0.0
 21
-2.0
 31
0.0
  0
LINE
  5
77
  8
1
  6
CONTINUOUS
 62
   173
 10
70.216982
 20
-29.4
 30
0.0
 11
2.0
 21
-29.4
 31
0.0
  0
LINE
  5
78
  8
1
  6
CONTINUOUS
 62
   173
 10
185.616799
 20
-51.9
 30
0.0
 11
223.501799
 21
-51.9
 31
0.0
  0
LINE
  5
79
  8
1
  6
CONTINUOUS
 62
   173
 10
225.501799
 20
-2.0
 30
0.0
 11
225.501799
 21
-27.367445
 31
0.0
  0
LINE
  5
7A
  8
1
  6
CONTINUOUS
 62
   173
 10
155.338808
 20
-65.7
 30
0.0
 11
96.509909
 21
-65.7
 31
0.0
  0
LINE
  5
7B
  8
1
  6
CONTINUOUS
 62
   173
 10
215.651799
 20
-60.15
 30
0.0
 11
215.651799
 21
-63.7
 31
0.0
  0
LINE
  5
7C
  8
1
  6
CONTINUOUS
 62
   173
 10
157.338808
 20
-68.7
 30
0.0
 11
157.338808
 21
-67.7
 31
0.0
  0
LINE
  5
7D
  8
1
  6
CONTINUOUS
 62
   173
 10
63.716982
 20
-60.9
 30
0.0
 11
63.716982
 21
-52.9
 31
0.0
  0
CIRCLE
  5
7E
  8
1
  6
CONTINUOUS
 62
   150
 10
91.463613
 20
-5.0
 30
0.0
 40
1.700000000000003
  0
CIRCLE
  5
7F
  8
1
  6
CONTINUOUS
 62
   150
 10
171.553808
 20
-67.46
 30
0.0
 40
0.2999999999999974
  0
ARC
  5
80
  8
1
  6
CONTINUOUS
 62
   173
 10
2.0
 20
-2.0
 30
0.0
 40
2.0
 50
90.0
 51
180.0
  0
ARC
  5
81
  8
1
  6
CONTINUOUS
 62
   173
 10
96.509909
 20
-63.7
 30
0.0
 40
2.000000000000002
 50
180.0
 51
270.0
  0
ARC
  5
82
  8
1
  6
CONTINUOUS
 62
   173
 10
64.716982
 20
-60.9
 30
0.0
 40
1.000000000000001
 50
180.0
 51
270.0
  0
ARC
  5
83
  8
1
  6
CONTINUOUS
 62
   173
 10
70.216982
 20
-46.9
 30
0.0
 40
5.000000000000004
 50
270.0
 51
0.0
  0
CIRCLE
  5
84
  8
1
  6
CONTINUOUS
 62
   150
 10
221.751799
 20
-55.65
 30
0.0
 40
1.699999999999989
  0
ARC
  5
85
  8
1
  6
CONTINUOUS
 62
   173
 10
2.0
 20
-27.4
 30
0.0
 40
2.0
 50
180.0
 51
270.0
  0
CIRCLE
  5
86
  8
1
  6
CONTINUOUS
 62
   150
 10
69.363445
 20
-56.9
 30
0.0
 40
1.700000000000003
  0
ARC
  5
87
  8
1
  6
CONTINUOUS
 62
   173
 10
92.509909
 20
-59.9
 30
0.0
 40
2.000000000000002
 50
0.0
 51
90.0
  0
ARC
  5
88
  8
1
  6
CONTINUOUS
 62
   173
 10
159.338808
 20
-68.7
 30
0.0
 40
2.000000000000002
 50
180.0
 51
270.0
  0
CIRCLE
  5
89
  8
1
  6
CONTINUOUS
 62
   150
 10
210.001799
 20
-5.0
 30
0.0
 40
1.699999999999989
  0
ARC
  5
8A
  8
1
  6
CONTINUOUS
 62
   173
 10
155.338808
 20
-67.7
 30
0.0
 40
2.000000000000002
 50
0.0
 51
90.0
  0
ARC
  5
8B
  8
1
  6
CONTINUOUS
 62
   173
 10
74.009909
 20
-60.9
 30
0.0
 40
1.000000000000001
 50
270.0
 51
0.0
  0
ARC
  5
8C
  8
1
  6
CONTINUOUS
 62
   173
 10
213.651799
 20
-63.7
 30
0.0
 40
2.000000000000002
 50
270.0
 51
0.0
  0
ARC
  5
8D
  8
1
  6
CONTINUOUS
 62
   173
 10
70.216982
 20
-34.4
 30
0.0
 40
5.000000000000001
 50
0.0
 51
90.0
  0
ARC
  5
8E
  8
1
  6
CONTINUOUS
 62
   173
 10
223.501799
 20
-56.15
 30
0.0
 40
2.000000000000002
 50
270.0
 51
0.0
  0
ARC
  5
8F
  8
1
  6
CONTINUOUS
 62
   173
 10
179.138808
 20
-67.7
 30
0.0
 40
2.000000000000002
 50
90.0
 51
180.0
  0
ARC
  5
90
  8
1
  6
CONTINUOUS
 62
   173
 10
76.009909
 20
-58.9
 30
0.0
 40
1.000000000000001
 50
90.0
 51
180.0
  0
CIRCLE
  5
91
  8
1
  6
CONTINUOUS
 62
   150
 10
162.553808
 20
-67.46
 30
0.0
 40
0.300000000000006
  0
ARC
  5
92
  8
1
  6
CONTINUOUS
 62
   173
 10
223.501799
 20
-2.0
 30
0.0
 40
2.000000000000002
 50
0.0
 51
90.0
  0
ARC
  5
93
  8
1
  6
CONTINUOUS
 62
   173
 10
223.501799
 20
-53.9
 30
0.0
 40
2.000000000000002
 50
0.0
 51
90.0
  0
ARC
  5
94
  8
1
  6
CONTINUOUS
 62
   173
 10
217.651799
 20
-60.15
 30
0.0
 40
2.000000000000002
 50
90.0
 51
180.0
  0
ARC
  5
95
  8
1
  6
CONTINUOUS
 62
   173
 10
64.716982
 20
-52.9
 30
0.0
 40
1.000000000000001
 50
90.0
 51
180.0
  0
ARC
  5
96
  8
1
  6
CONTINUOUS
 62
   173
 10
185.616799
 20
-46.9
 30
0.0
 40
4.999999999999997
 50
180.0
 51
270.0
  0
ARC
  5
97
  8
1
  6
CONTINUOUS
 62
   173
 10
185.616799
 20
-34.367445
 30
0.0
 40
5.000000000000004
 50
90.0
 51
180.0
  0
ARC
  5
98
  8
1
  6
CONTINUOUS
 62
   173
 10
175.138808
 20
-68.7
 30
0.0
 40
2.000000000000002
 50
270.0
 51
0.0
  0
ARC
  5
99
  8
1
  6
CONTINUOUS
 62
   173
 10
223.501799
 20
-27.367445
 30
0.0
 40
1.999999999999998
 50
270.0
 51
0.0
  0
ENDSEC
  0
EOF
